Oops, an error
Loading. Please wait.

Jupiters Child Tab

2,292 views 3 this week
no commentswrite comment
1 2 3 4 5
please rate
add to favorites
launch autoscroll
font size
0
reset
how to read this tab
guitar tuner
Autoscroll
slow
fast
+/-
esc
set tempo
stop
Help us to improve Ultimate-Guitar.com Take our survey!
×
Author
---------------------------        ---------------------------|
---------------------------        ---------------------------|
---------------------------        --x--5------8-10-----------|
-10-10-----8---------------        --x--5------8-10--8-10/----|
-10-10-----8---------------        --x--3------6--8-----------|
--8--8-----6-----6h8p6h8---        ---------------------------|
 1A                                 1B

------------------------------|
------------------------------|
------------------------------|
-10----10-----x--x--8-----8---|
-10----10-----x--x--8-----8---|
--8-----8-----x--x--6-----6---|
 1C                            =20

-------------------------------------------------------------------|
-------------------------------------------------------------------|
------------------------------------x-13-15--------x-13-15---------|
-13b-------------------13b----------x-13-15-13-----x-13-15---------|
-13b-13-11----11-13/15-13b-11/15----x-11-13----15--x-11-13-13-15---|
-11b-------13----------11b-----------------------------------------|
 2 - Solo 1

--------------------------------------|
--------------------------------------|
-------13--x--x--x--x--x--x--x--x-----|
-15-13-13--x--x--x--x--x--x--x--x-----|
-15-13-11--x--x--x--x--x--x--x--x-----|
-13-11--------------------------------|
                                         =20
------------------------     ------------------------|
------------------------     ------------------------|
------------------------     ------------------------|
--15b-------15b---------     ------15b-------18------|
--15b-13-15-15b---------     ------15b-15/18-18------|
--13b-------13b---------     ------13b-------16------|
 3A                             3B

-----------------------------------    ------------------------|
-----------------------------------    ------------------------|
--------14-------------15----------    ------------------------|
-----14----14-------15----15-------    ----15-18-------17------|
--12----------12-13----------13----    ----15-18-------17------|
-----------------------------------    ----13-16-------15------|
 3C                                      3D

---------------------------      ------------------------|
---------------------------      ------------------------|
---------------------------      --------------17-15-----|
--3--------------3--------      --------13----17-15------|
--3---------1h3--3--------      --13-15----15-15-13------|
--1--------------1--------      -------------------------|
 4A                                4B =20

---------------------------      ----------------------------------|
---------------------------      ----------------------------------|
---------------------------      ----5--8-10-10--8--5-10-10-10--8--|
--------13-------13--------      ----5--8-10-10--8--5-10-10-10--8--|
--13-15----15-------15-----      ----3--6--8--8--6--3--8--8--8--6--|
---------------------------      ----------------------------------|
 4C                                4D=20

Song Layout:

Intro - 1A x3	Solo 1- 1A x2	Outro - 4A
	1B		2		1A x3
Verse - 1A x3	Solo 2-	1A x2		1B
	1B		3A x2		4B x3
	1A x3		3B		4C
	1B		3C x3		1A x4
	1C		3D		4D x2
					1A ad infinitum

INTRO
VERSE
The one who reads the stars has told me
Why you're not like everyone
Your father is a fiery wizard
He travels all around the sun
No one ever knew just where you came from
Orphan girl, you grew up wild
Your father left you on the way home
Yes, girl, you're a Jupiter's child

VERSE
Wish I knew the way back
Back to where you came
Gladly I would leave here
Take another name
I can tell by you, it must be true
It's up on Jupiter's face
They don't embrace our own disgrace
Somebody, help me off this place

SOLO 1
VERSE
You really quite belonged
Like a pearl among the swine
You tried to live the way we do
Hoping you would learn in time
But, mankind, with all it's virtue
Will soon make you lose your smile
On this earth, with all it's madness
Heaven help a Jupiter's child

SOLO 2
VERSE
Wish I knew the way back
Back to where you came
Gladly I would leave here
Take another name
I can tell by you, it must be true
It's up on Jupiter's face
They don't embrace our own disgrace
Somebody, get me off this place

OUTRO

Normal tuning. Give me good scores! Jesse M
Suggest correction
What's this?
You can suggest a correction to this tab. Community and Mods will review your correction and vote to approve or reject it.
comments
We did not receive enough feedback on this tab! Please rate:
print report bad tab
1 2 3 4 5
guest
You may want to rate the tab now too:
select rating
Please do not post tabs as comments. Select "correction" instead!