Oops, an error
Loading. Please wait.

Move Over Bass Tab

587 views 1 this week
no commentswrite comment
1 2 3 4 5
3 more votes to show rating
add to favorites
launch autoscroll
font size
0
reset
guitar tuner
Autoscroll
slow
fast
+/-
esc
set tempo
stop
Help us to improve Ultimate-Guitar.com Take our survey!
×
Steppenwolf
Move Over
Greatest Hits


Intro-play twice at beginning.
G------------------|
D--------1---------|
A-3-3-1/3--------1-|
E----------1--1-3--|

Verse Main Riff- not sure how many times F is played but it's reeeal easy to follow.
G--------------------------|
D---------1-3-3333-1-------|
A-3-3-1/3------------3-1---|
E--------------------------|

Bridge 1-don't let the notes ring. sort of jabby.
"Yesterday's glory won't help us today..."
G-----------------------------------|
D-----------------3-3-3-3-3-3-3-3---|
A-----------------------------------|
E-3-3-3-3-3-3-3-3-------------------|

Bridge 2-similar to intro
"I ain't got much time..."
G--------------------|
D------1-------------|
A-3-3-3-------1-2----|
E--------1---3-------|

solo-played the same way as the intro, or if you like, play the verse. They're 
only different because of
octive changes
Outro-same thing, intro or verse. prefered intro.
Suggest correction
Give kudos to tab author, rate the tab!
1 2 3 4 5
comments
print report bad tab
guest
You may want to rate the tab now too:
select rating
Wanna post a correction for this tab? Suggest correction