Oops, an error
Loading. Please wait.

Ride With Me Tab

version 1
version 1

Whole song

Interactive

2,043 views 1 this week
no commentswrite comment
1 2 3 4 5
3 more votes to show rating
add to favorites
launch autoscroll
font size
0
reset
how to read this tab
guitar tuner
Autoscroll
slow
fast
+/-
esc
set tempo
stop
Help us to improve Ultimate-Guitar.com Take our survey!
×
Author
Difficulty
intermediate
----------------------------------------------------------------------------
                             Ride With Me - Band Steppenwolf
----------------------------------------------------------------------------
Tabbed by: Richard Durham
Email: ledzpplinrocks99@yahoo.com

Great Steppenwolf Classic

Tuning: Standard EADGBe


Chorus/Intro(2x for Intro)

e|--------------------------------------------------------------------------|
B|-------5------5-5---5-5---5/7----xx---7-7-----7-7-7-7---5-----------------|
G|-------5------5-5---5-5---5/7----xx---7-7-----7-7-7-7---5-----------------|
D|-------5------5-5---5-5---5/7----xx---7-7-----7-7-7-7---5-----------------|
A|-------3------3-3---3-3---3/5----xx---5-5-----5-5-5-5---3-----------------|
E|-------x------x-x---x-x---x/x----xx---x-x-----x-x-x-x---x-----------------|

Verse Part 1: Repeat 2x Before Singing Starts

e|--0--------0--x-----------x--x---0--------0-0x0---------x--x-x------------|
B|--0--------0--x-2---------2--2---0--------0-0x0---------2--x-x------------|
G|--0--------1--x-2---------2--2---0---4-4--4-4x4---------2--x-x---0p1------|
D|-----2--2--2--x-2---2--2--2--2-------x-x----------2--2--2--x-x---2--------|
A|-----2--2-----------4--4-------------5-5----------4--4-----------2--------|
E|-----0--0-----------0--0-------------0-0----------0--0-----------0--------|

Verse Part 2

e|--0-----0-----0----0-----0--00--------------------------------------------|
B|--2-----3-----3----5-----3--33--------------------------------------------|
G|--0-----0-----0----0-----0--00--------------------------------------------|
D|--2-----4-----4----5-----4--44--------------------------------------------|
A|--0--0--x--0--x----0--0--x--xx--------------------------------------------|
E|-----0-----0-------0--0---------------------------------------------------|

Back to Chorus

| /  slide up
| \  slide down
| h  hammer-on
| p  pull-off
| ~  vibrato
| +  harmonic
| x  Mute note
Suggest correction
Give kudos to tab author, rate the tab!
1 2 3 4 5
comments
print report bad tab
guest
You may want to rate the tab now too:
select rating
Wanna post a correction for this tab? Suggest correction