Oops, an error
Loading. Please wait.

Rock Me Bass Tab

version 1
version 1

Whole song

Interactive

1,349 views 1 this week
no commentswrite comment
1 2 3 4 5
3 more votes to show rating
add to favorites
launch autoscroll
font size
0
reset
guitar tuner
Autoscroll
slow
fast
+/-
esc
set tempo
stop
Help us to improve Ultimate-Guitar.com Take our survey!
×
Steppenwolf-ROCK ME

   Verse
G|--------------------------|
D|------------3-3-3-3--3--3-|
A|-3-3-3-3-11---------------|
E|--------------------------|Those are 1's not an 11
Variations to the Verse are:
G|-------------------------|
D|------------3-3-3-3-3-33-|
A|-3-3-3-3-11--------------|
E|-------------------------|
             and
G|---------------------------|
D|------------3-3-3-3--3-3-3-|
A|-3-3-3-3-11----------------|
E|---------------------------|
             and
G|----------------------------|
D|------------3-3-3-3-3-3-3-3-|
A|-3-3-3-3-11-----------------|
E|----------------------------|

   Chorus
G|---2-3-55-3---------|
D|-3--------------0-1-|
A|------------1-3-----|
E|--------------------|

   Post-Chorus
G|---2-3-5--3-1---|
D|-3------------3-|
A|----------------|
E|----------------|

   Bridge
G|-5-------5-3--------|
D|-------------5-1b---|
A|---3-3-3----------3-|
E|--------------------|

Verse----------|10x
Chorus---------|5x
Post-Chorus----|1x
Verse----------|8x
Chorus---------|5x
Post-Chorus----|1x
Bridge---------|1x
Percussion Solo|play nothing
Verse----------|play till it fades
Suggest correction
Give kudos to tab author, rate the tab!
1 2 3 4 5
comments
print report bad tab
guest
You may want to rate the tab now too:
select rating
Wanna post a correction for this tab? Suggest correction