Oops, an error
Loading. Please wait.

Sookie Sookie Bass Tab

version 1
version 1

Whole song

Interactive

1,554 views 6 this week
no commentswrite comment
1 2 3 4 5
please rate
add to favorites
launch autoscroll
font size
0
reset
guitar tuner
Tab Pro tools
  • play this tab
  • loop segment
  • change instrument
  • show fretboard
  • metronome
×
Best way to learn
"Sookie Sookie"
Autoscroll
slow
fast
+/-
esc
set tempo
stop
Steppenwolf-Sookie Sookie

   Intro
G|-----------0--|
D|--------------|
A|-3----1-------|
E|--------------|

   Verse 1
              .5
G|-------------|-------------|
D|-------------|---------7-5-|
A|-5-5-5-5-----|-5-5-5-5-----|
E|---------3-5-|-------------|

   Fill 1.1
G|-----------|
D|-----------|
A|-5---3---3-|
E|---5---5---|

   Chorus
G|---------------|
D|---------------|
A|-5555555555555-|
E|---------------|

   Fill 1.2
G|---------|
D|---------|
A|-----3---|
E|-3h5-----|

   Fill 1.3
G|---------------|
D|---------------|
A|-5-----3---3---|
E|---3h5---5---5-|

   Fill 1.4
G|---------|
D|----3----|
A|-/5---5--|
E|---------|

   Fill 1.5
G|-----------|
D|---3---3---|
A|-5---5---5-|
E|-----------|

   Fill 2
G|--------|
D|-12----|
A|--------|
E|--------|

   Verse 2.1
              .5 
G|-------------|-------------|
D|-------------|---------9-7-|
A|-7-7-7-7-----|-7-7-7-7-----|
E|---------5-7-|-------------|

   Verse 2.2
                .5
G|---------------|---------------|
D|---------------|-----------9-7-|
A|-7-7-7-7-7-----|-7-7-7-7-7-----|
E|-----------5-7-|---------------|

   Fill 3
G|-----------|
D|-----------|
A|-7-7-7---5-|
E|-------7---|

   Chorus 2
G|---------------|
D|---------------|
A|-7777777777777-|
E|---------------|


Intro    |  1x
Verse 1  |5.5x 
Fill 1.1 |  1x
Chorus 1 |  1x
Fill 1.2 |  1x
Verse 1  |3.5x
Fill 1.3 |  1x
Chorus 1 |  1x
Intro    |  1x
Fill 1.4 |  1x
Verse 1  |  8x
Intro    |  1x
Verse 1  |7.5x
Fill 1.5 |  1x
Chorus 1 |  1x
Fill 2   |  1x
Verse 2.1|  2x
Verse 2.2|7.5x
Fill 3   |  1x
Chorus 2 |  1x


comments
We did not receive enough feedback on this tab! Please rate:
print report bad tab
1 2 3 4 5
I want to post or [tab]
guest
You may want to rate the tab now too:
select rating
Please do not post tabs as comments. Select "correction" instead!