Oops, an error
Loading. Please wait.

A Deeper Shade Of Blue bass

by Steps
88 views 1 this week
no commentswrite comment
1 2 3 4 5
2 more votes to show rating
add to favorites
×
Save as Personal and add changes to this tab that will be seen only by you. Learn more ›
×
You can save this tab as Personal to edit and correct it or add notes. All changes will be seen only by you. Learn more »
launch autoscroll
font size
0
reset
guitar tuner
edit
Autoscroll
slow
fast
+/-
esc
set tempo
stop
Author
A Deeper Shade Of Blue
Single released by vocal quintet Steps in 2000. Reached #4 UK Charts
Tab by bass50611. A very Pleasant sing-a-long song . My tab not exact
More of a simplified version, hope you enjoy playing along to it.

Intro:
 Yeah I...a deeper shade of blue...and there’s nothing I can do
G|--------------------------3------------------------------------|
D|----------3----------------------------------1-------------6---|
A|---3-----------------------------------------------------------|
E|---------------------------------------------------------------|

  It’s so far, far away......so far away
G|---------------------------------------------------------------------|
D|-----------------5-----5--5--5--5--------------------5--5--5-5--5--5-|
A|--------4---------------------------3--3--3-3--3--3------------------|
E|---------------------------------------------------------------------|

G|----------------------------------|
D|-------------------6--6--6-6-4-2--|
A|-3--3--3-3--3--3----------------5-|
E|----------------------------------|

Verse 1:
G|-----------------------------------------------------------------------|
D|-----------------------------------------------------------------------|
A|-3--3--3-3--3--3---3--3--3-3--3--3---3--3--3-3--3--3---3--3--3-3--3--3-|
E|-----------------------------------------------------------------------|

G|-----------------------------------------------------------------------|
D|-----------------------------------------------------------------------|
A|-----------------------------------------------------------------------|
E|-4--4--4-4--4--4---3--3--3-3--3--3---1--1--1-1--1--1---3--3--3-3--3--3-|

Verse 2:
G|-----------------------------------------------------------------------|
D|-----------------------------------------------------------------------|
A|-3--3--3-3--3--3---3--3--3-3--3--3---3--3--3-3--3--3---3--3--3-3--3--3-|
E|-----------------------------------------------------------------------|

G|-----------------------------------------------------------------------|
D|-----------------------------------------------------------------------|
A|-----------------------------------------------------------------------|
E|-4--4--4-4--4--4---3--3--3-3--3--3---1--1--1-1--1--1---3--3--3-3--3--3-|

Chorus:
G|---------------------------------------------------------------------|
D|------------------3--3--3-3--3--3------------------------------------|
A|-3--3--3-3--3--3-------------------1--1--1-1--1--1---6--6--6-6--6--6-|
E|---------------------------------------------------------------------|

G|---------------------------------------------------------------------|
D|---------------------------------------------------------------------|
A|------------------4--4--4-4--4--4------------------------------------|
E|-4--4--4-4--4--4-------------------3--3--3-3--3--3---3--3--3-3--3--3-|

G|---------------------------------------------------------------------|
D|------------------3--3--3-3--3--3------------------------------------|
A|-3--3--3-3--3--3-------------------1--1--1-1--1--1---6--6--6-6--6--6-|
E|---------------------------------------------------------------------|

G|---------------------------------------------------------------------|
D|---------------------------------------------------------------------|
A|------------------4--4--4-4--4--4------------------------------------|
E|-4--4--4-4--4--4-------------------3--3--3-3--3--3---3--3--3-3--3--3-|

Interlude:
G|-------------------------------------------------------------------|
D|------------------5--5--5-5--5--5-------------------6--6--6-6-4-2--|
A|-3--3--3-3--3--3-------------------3--3--3-3--3--3---------------5-|
E|-------------------------------------------------------------------|

Verse 3:
G|-----------------------------------------------------------------------|
D|-----------------------------------------------------------------------|
A|-3--3--3-3--3--3---3--3--3-3--3--3---3--3--3-3--3--3---3--3--3-3--3--3-|
E|-----------------------------------------------------------------------|

G|-----------------------------------------------------------------------|
D|-----------------------------------------------------------------------|
A|-----------------------------------------------------------------------|
E|-4--4--4-4--4--4---3--3--3-3--3--3---1--1--1-1--1--1---3--3--3-3--3--3-|

Verse 4:
G|-----------------------------------------------------------------------|
D|-----------------------------------------------------------------------|
A|-3--3--3-3--3--3---3--3--3-3--3--3---3--3--3-3--3--3---3--3--3-3--3--3-|
E|-----------------------------------------------------------------------|

G|-----------------------------------------------------------------------|
D|-----------------------------------------------------------------------|
A|-----------------------------------------------------------------------|
E|-4--4--4-4--4--4---3--3--3-3--3--3---1--1--1-1--1--1---3--3--3-3--3--3-|

Chorus:
G|---------------------------------------------------------------------|
D|------------------3--3--3-3--3--3------------------------------------|
A|-3--3--3-3--3--3-------------------1--1--1-1--1--1---6--6--6-6--6--6-|
E|---------------------------------------------------------------------|

G|---------------------------------------------------------------------|
D|---------------------------------------------------------------------|
A|------------------4--4--4-4--4--4------------------------------------|
E|-4--4--4-4--4--4-------------------3--3--3-3--3--3---3--3--3-3--3--3-|

G|---------------------------------------------------------------------|
D|------------------3--3--3-3--3--3------------------------------------|
A|-3--3--3-3--3--3-------------------1--1--1-1--1--1---6--6--6-6--6--6-|
E|---------------------------------------------------------------------|

G|---------------------------------------------------------------------|
D|---------------------------------------------------------------------|
A|------------------4--4--4-4--4--4------------------------------------|
E|-4--4--4-4--4--4-------------------3--3--3-3--3--3---3--3--3-3--3--3-|

Interlude:
G|--------------------------------------------------------------------|
D|------------------5--5--5-5--5--5-------------------6--6--6-6--6--6-|
A|-3--3--3-3--3--3-------------------3--3--3-3--3--3------------------|
E|--------------------------------------------------------------------|

                                                                    (Break)
G|--------------------------------------------------------------------|
D|------------------5--5--5-5--5--5-------------------6--6--6-6-4-2-1-|
A|-3--3--3-3--3--3-------------------3--3--3-3--3--3------------------|
E|--------------------------------------------------------------------|

No Bass For 8 Bars:

G|-----------------------------------------------------------------------|
D|-----------------------------------------------------------------------|
A|--------------------6--6--6-6--6--6---4--4--4-4--4--4------------------|
E|-3-4--4--4-4--4--4-------------------------------------3--3--3-3--3--3-|

Chorus:
G|---------------------------------------------------------------------|
D|------------------3--3--3-3--3--3------------------------------------|
A|-3--3--3-3--3--3-------------------1--1--1-1--1--1---6--6--6-6--6--6-|
E|---------------------------------------------------------------------|

G|---------------------------------------------------------------------|
D|---------------------------------------------------------------------|
A|------------------4--4--4-4--4--4------------------------------------|
E|-4--4--4-4--4--4-------------------3--3--3-3--3--3---3--3--3-3--3--3-|

Outro:
G|---------------------------------------------------------------------|
D|------------------3--3--3-3--3--3------------------------------------|
A|-3--3--3-3--3--3-------------------1--1--1-1--1--1---6--6--6-6--6--6-|
E|---------------------------------------------------------------------|

                                                (Song Fades Out)
G|---------------------------------------------------------------------|
D|---------------------------------------------------------------------|
A|------------------4--4--4-4--4--4------------------------------------|
E|-4--4--4-4--4--4-------------------3--3--3-3--3--3---3--3--3-3--3--3-|


            
            
Suggest correction
Creating personal tab
Creating personal tab
You can edit any tab online and save it as your Personal.

You can edit, replace or remove any tab part or add personal notes – all changes will be seen only by you.

Personal tabs can be accessed anytime from any device, even offline.
Learn more »
Give kudos to tab author, rate the tab!
1 2 3 4 5
comments
print report bad tab
guest
You may want to rate the tab now too:
select rating
Wanna post a correction for this tab? Suggest correction