Oops, an error
Loading. Please wait.

Devotion tab

by Stereo
134 views 1 this week
no commentswrite comment
1 2 3 4 5
2 more votes to show rating
add to favorites
×
Save as Personal and add changes to this tab that will be seen only by you. Learn more ›
×
You can save this tab as Personal to edit and correct it or add notes. All changes will be seen only by you. Learn more »
launch autoscroll
font size
0
reset
how to read this tab
guitar tuner
edit
Autoscroll
slow
fast
+/-
esc
set tempo
stop
Author
Difficulty
intermediate
The Stereo - Devotion


Tab by Avi Yaacov
Israel, September 25, 2014


This is a great song, with quite a cool interesting solo as well...  more people should know this one.



Intro Chord:  Bb

Verse:
    Eb   Bb   Cm   Gm   Ab   Eb   Bb
e|-----------------------------------|
B|-----------------------------------|
G|--8---------5--------------8-------|
D|--8----8----5----5----6----8----8--|
A|--6----8----3----5----6----6----8--|
E|-------6---------3----4---------6--|


Chorus:
  Transition     Main chorus chords
e|----------|-------------------------------------------------|
B|----------|------------------------break--------------------|
G|----------|------------8-----------8--6-----5---3-----------|
D|---8--7---|-------6----8----6------8--6-----5---3---6---8---|
A|---8--7---|-------6----6----6------6--4-----3---1---6---8---|
E|---6--5---|-------4---------4-----------------------4---6---|

And then Bb used for transition back to verse again


The song ends with a regular chorus, 
wherein the last chords (Bb) is replaced with a regular B (at 7th fret)




Solo at 1:15
e|-----------------|---------------------------------------6/8/6-------|
B|--8-8-8-8-8-8vv--|--8p6--------------9/11/9--6/8--9/11/9--------8----|
G|-----------------|------8p7---7h8---------------------------------7--|
D|-----------------|----------------8----------------------------------|
A|-----------------|---------------------------------------------------|
E|-----------------|---------------------------------------------------|

e|-----16------------------------------|--15-13--------------------------|
B|--20----20-18-16-15--16-16b18r15-----|--------13-12--13-15b16r15r13----|
G|---------------------------------17--|-----------------------------15--|
D|-------------------------------------|---------------------------------|
A|-------------------------------------|---------------------------------|
E|-------------------------------------|---------------------------------|

e|------------------------|------------------------|
B|------------------------|------------------------|
G|------------8-10b11r10--|------------8-10b11r10--|
D|-------8-10-------------|-------8-10-------------|
A|--8h10------------------|--8h10------------------|
E|------------------------|------------------------|

e|-----------------------------|---------------------------------|
B|--8-8-8-6-------------6-6----|---------------------------------|
G|----------8-7---5-7-8-----8--|--7vv-8vv---7vv-8vv----7vv--8vv--|
D|-----------------------------|-----------------------pinch-----|
A|-----------------------------|---------------------------------|
E|-----------------------------|---------------------------------|

e|-------------------------------11----11----11-------10----10----10----10--|
B|--11b12r11---------------11h13----13----13----13-------11----11----11-----|
G|-----------13-12--13-12---------------------------------------------------|
D|--------------------------------------------------------------------------|
A|--------------------------------------------------------------------------|
E|--------------------------------------------------------------------------|


e|--11----11----11----11----11vvvv--|
B|-----13----13----13----13---------|
G|----------------------------------|
D|----------------------------------|
A|----------------------------------|
E|----------------------------------|


            
            
Suggest correction
Creating personal tab
Creating personal tab
You can edit any tab online and save it as your Personal.

You can edit, replace or remove any tab part or add personal notes – all changes will be seen only by you.

Personal tabs can be accessed anytime from any device, even offline.
Learn more »
Give kudos to tab author, rate the tab!
1 2 3 4 5
comments
print report bad tab
guest
You may want to rate the tab now too:
select rating
Wanna post a correction for this tab? Suggest correction