Oops, an error
Loading. Please wait.

Infinity Girl Bass Tab

591 views 1 this week
no commentswrite comment
1 2 3 4 5
please rate
add to favorites
launch autoscroll
font size
0
reset
guitar tuner
Autoscroll
slow
fast
+/-
esc
set tempo
stop
Help us to improve Ultimate-Guitar.com Take our survey!
×
Difficulty
intermediate
-----------------------------------------------------------------------------
			     INFINITY GIRL - Stereolab
-----------------------------------------------------------------------------

Tabbed By : Adam Kopcinski	
e-mail: solarflux@planetquake.com

Tuning: Standard
Listen to the song for timing

This is played during the first part of the song, over and over:

G|----------11--------------------------------11----------------------------|
D|-----9--11----11--9--------9-11-9------9--11----11--9--------9-11-9-------|
A|----------------------9----------9----------------------9----------9------|
E|--------------------------------------------------------------------------|

Second part, also repeated again and again (not sure if this part is %100
correct, but it sounds good and is fun to play!)

G|----------6---12--11--9---------------------6---12--11--9-----------------|
D|----6-7-9------------------12-11------6-7-9------------------12-11--------|
A|9---------------------------------9---------------------------------------|
E|--------------------------------------------------------------------------|




| /  slide up
| \  slide down
| h  hammer-on
| p  pull-off
| ~  vibrato
| +  harmonic
| x  Mute note
Suggest correction
Give kudos to tab author, rate the tab!
1 2 3 4 5
comments
print report bad tab
guest
You may want to rate the tab now too:
select rating
Wanna post a correction for this tab? Suggest correction