Oops, an error
Loading. Please wait.

Pack Yr Romantic Mind Tab

555 views 6 this week
no commentswrite comment
1 2 3 4 5
please rate
add to favorites
launch autoscroll
font size
0
reset
how to read this tab
guitar tuner
Autoscroll
slow
fast
+/-
esc
set tempo
stop
Help us to improve Ultimate-Guitar.com Take our survey!
×
Author
Difficulty
intermediate
STEREOLAB - PACK YR ROMANTIC MIND
soloriohead@hotmail.com

CHORDS:
   Cmaj7  Dmaj7  D   Dsus4    Bm/F#    Em
e----3-----2-----2-----3-------2-------0---|
B----5-----2-----3-----3-------3-------0---|
G----4-----2-----2-----2-------4-------0---|
D----5-----0-----0-----0-------4-------2---|
A----3-----x-----x-----x-------2-------2---|
E----x-----x-----x-----x-------2-------0---|


INTRO:
Cmaj7   Dmaj7   D   Dsus4     x  2
[Strum each chord once]

Riff during intro:
e--7-5------------------------------|
B------8-7-8-7-5---5----------------|
G----------------8---7-5-4---4-5-4--|
D--------------------------7--------|
A-----------------------------------|
E-----------------------------------|

PART I:
               Cmaj7
The greater is the beauty
               Dmaj7
The profounder is the stain
        D
Significant of the forbidden
                Dsus4
Transgressed in eroticism

[repeat 4x]
PART II:
               Cmaj7
The greater is the beauty
               Dmaj7
The profounder is the stain
        D
Significant of the forbidden
                Bm/F#   Cmaj7
Transgressed in eroticism

Bm/F#   Em
Eroticism

[repeat 2x]

BREAK:
Cmaj7   Dmaj7   D   Dsus4   x 4

Riff during break:
e----5--------------------5---------|
B-5-----3-5-3------7-7-7------3-----|
G---5-----------------------4---5---|
D-----------------------------------|
A-----------------------------------|
E-----------------------------------|

PART II

ENDING:
Cmaj7   Dmaj7   D
Bm/F#   Cmaj7   Bm/F#   Em

Cmaj7   Dmaj7   D
Bm/F#   Cmaj7   Bm/F#   Em

Cmaj7   Dmaj7   D   Dsus4            [repeat till fade]

Little riff during ending:
e-----|
B-----|
G-7h9-|
D-----|
A-----|
E-----|

-----------------------------------------------------------
NOTE: This tab was rescued from Planete Magique fan website.

Send corrections or contributions to:
soloriohead@hotmail.com
Suggest correction
What's this?
You can suggest a correction to this tab. Community and Mods will review your correction and vote to approve or reject it.
comments
We did not receive enough feedback on this tab! Please rate:
print report bad tab
1 2 3 4 5
guest
You may want to rate the tab now too:
select rating
Please do not post tabs as comments. Select "correction" instead!