Oops, an error
Loading. Please wait.

Bartender And The Thief tab

version 1
version 1

Whole song

Interactive

10,275 views 3 this week
2 commentsread comments
1 2 3 4 5
x 3
add to favorites
×
Save as Personal and add changes to this tab that will be seen only by you. Learn more ›
×
You can save this tab as Personal to edit and correct it or add notes. All changes will be seen only by you. Learn more »
launch autoscroll
font size
0
reset
how to read this tab
guitar tuner
backing track
0:00
0:00
edit
Autoscroll
slow
fast
+/-
esc
set tempo
stop
This song is so good and well worth the listen:

Key:
x = Muted strings
~ = Let ring/ vibrato in the solo
/ = Slide up....
\ = Slide down....
p = Pull off

Intro:
e|---------------------------------|
b|---------------------------------|
g|---------------------------------|
d|5---5---5---5---5---5---5--------|
a|5---5---5---5---5---5---5--------|
D|5---5---5---5---5---5---5-3-5-3-0|

Verse:
|----------------------------------------------------------------|
|----------------------------------------------------------------|
|4-4-x-x-4-4-x-4---4-x-x-4-4-x-4---4-x-x-4-4-x-4---4-x-x-4-4-x-x-|
|3-3-x-x-3-3-x-3---3-x-x-3-3-x-3---3-x-x-3-3-x-3---3-x-x-3-3-x-x-|
|3-3-x-x-3-3-x-3---3-x-x-3-3-x-3---3-x-x-3-3-x-3---3-x-x-3-3-x-x-|
|3-3-x-x-3-3-x-3---3-x-x-3-3-x-3---3-x-x-3-3-x-3---3-x-x-3-3-x-x-|

|-------------------|
|-------------------|
|-------------------|
|0-003p003p00-------|
|------------00-----|
|--------------3530-| x2

VERSE

|-------------------|    |-------------------| 
|-------------------|    |-------------------| 
|-------------------|    |-------------------| 
|0-003p003p00-------|    |0-003p003p003////12|
|------------00-----|    |-------------------| 
|--------------3530-| x1 |-------------------| x1

Pre-Chorus:
Slide up to the first chord every time
|--------------------------------|
|--------------------------------|
|--------------------------------|
|8~~~8-8-8-8-8-5~~~5-5-5~~~5-5-5-|
|8~~~8-8-8-8-8-5~~~5-5-5~~~5-5-5-|
|8~~~8-8-8-8-8-5~~~5-5-5~~~5-5-5-| X3

|--------------------------------|
|--------------------------------|
|--------------------------------|
|5-5-5-5-5-5-5-5-5-5-5-5-5-5-5-5-|
|5-5-8-5-8-5-5-8-5-8-5-8-8-5-8-5-|
|5-5-5-5-5-5-5-5-5-5-5-5-5-5-5-5-|

Chorus:
|--------------------------------|
|--------------------------------|
|--------------------------------|
|0--0-0-0-0-0--5---5-5-5---5-5-5-|
|0--0-0-0-0-0--5---5-5-5---5-5-5-|
|0--0-0-0-0-0--5---5-5-5---5-5-5-| x4

VERSE

Verse 2:

|----------------------------------------------------------------|
|----------------------------------------------------------------|
|4-4-x-x-4-4-x-4---4-x-x-4-4-x-4---4-x-x-4-4-x-4---4-x-x-4-4-x-x-|
|3-3-x-x-3-3-x-3---3-x-x-3-3-x-3---3-x-x-3-3-x-3---3-x-x-3-3-x-x-|
|3-3-x-x-3-3-x-3---3-x-x-3-3-x-3---3-x-x-3-3-x-3---3-x-x-3-3-x-x-|
|3-3-x-x-3-3-x-3---3-x-x-3-3-x-3---3-x-x-3-3-x-3---3-x-x-3-3-x-x-|
      
|-------------------|    |-------------------| 
|-------------------|    |-------------------| 
|-------------------|    |-------------------| 
|0-003p003p00-------|    |0-003p003p003////12|
|------------00-----|    |-------------------| 
|--------------3530-| x1 |-------------------| x1


PRE-CHORUS

CHORUS

Middle 8 (solo)
|------------|
|---66-5-3-3-|
|---55-5-5-5-|
|3--33-3-3-3-|
|3-----------|
|3-----------| X2

|-------------------|  
|-------------------|    
|-------------------|     
|0-003p003p00-------|    
|------------00-----|   
|--------------3530-| X2

|------------|
|---66-5-3-3-|
|---55-5-5-5-|
|3--33-3-3-3-|
|3-----------|
|3-----------| X2

|-------------------|    |-------------------| 
|-------------------|    |-------------------| 
|-------------------|    |-------------------| 
|0-003p003p00-------|    |0-003p003p003////12|
|------------00-----|    |-------------------| 
|--------------3530-| x1 |-------------------| x1

PRE-CHORUS

CHORUS X 4 (the do's go over the chorus chords)

Outro 

|-----------------------|
|-----------------------|
|-----------------------|
|------3////12\\\\------|
|------3////12\\\\------|
|3p2p0-3////12\\\\3p2p0-|

This is how you play it and i'm pretty sure of it, i'd use it with distortion to give it the real sound.

Info. from gaz_male@hotmail.com

Thanks have fun with it.
Suggest correction
Creating personal tab
Creating personal tab
You can edit any tab online and save it as your Personal.

You can edit, replace or remove any tab part or add personal notes – all changes will be seen only by you.

Personal tabs can be accessed anytime from any device, even offline.
Learn more »
Give kudos to tab author, rate the tab!
1 2 3 4 5
comments
print report bad tab
2 comments total.
0 reply
CraigHolroyd 80 Jan 05, 2009 06:45 AM

all sounds pretty much right to me apart from that verse in the chorus. i think it sounds fine without the g string, but not sure.

other than that, great tab

0 reply
CraigHolroyd 80 Mar 02, 2009 09:35 AM

whoops i meant the chord in the verse XP
think it sounds OK without the g string - feels like it sounds a little bit out of place to me :/

guest
Wanna post a correction for this tab? Suggest correction