Oops, an error
Loading. Please wait.

Bartender And The Thief bass

version 4
version 4

Whole song

Interactive

112 views 3 this week
no commentswrite comment
1 2 3 4 5
3 more votes to show rating
add to favorites
×
Save as Personal and add changes to this tab that will be seen only by you. Learn more ›
×
You can save this tab as Personal to edit and correct it or add notes. All changes will be seen only by you. Learn more »
launch autoscroll
font size
0
reset
guitar tuner
backing track
0:00
0:00
edit
Autoscroll
slow
fast
+/-
esc
set tempo
stop
[Intro]
  G5
G|---------------|---------------|
D|---------------|---------------|
A|---------------|---------------|
E|3---3---3---3--|3---3---3-3-3-3|
  1 & 2 & 3 & 4 & 1 & 2 & 3 & 4 &

[Verse) & (Solo) Play twice
  F5                                                         G5
G|---------------|---------------|---------------|---------------|
D|---------------|---------------|---------------|---------------|
A|---------------|---------------|---------------|---------------|
E|1---1---1-1---1|1---1---1-1---1|1---1---1-1---1|1---1---1-1-3--|
  1 & 2 & 3 & 4 & 1 & 2 & 3 & 4 & 1 & 2 & 3 & 4 & 1 & 2 & 3 & 4 &

  D                       G5      D                       G5
G|---------------|---------------|---------------|---------------|
D|--------3-----3|---------------|--------3-----3|---------------|*
A|5---5-5---5----|5---5-5-----3--|5---5-5---5----|5---5-5-----3--|*
E|---------------|--------3-3----|---------------|--------3-3----|
  1 & 2 & 3 & 4 & 1 & 2 & 3 & 4 & 1 & 2 & 3 & 4 & 1 & 2 & 3 & 4 &


[Pre chorus]
  Bb5             G5           A5
G|---------------|---------------|---------------|---------------|
D|---------------|---------------|---------------|---------------|
A|1---1---1-1---1|---------------|1---1---1-1---1|---------------|
E|---------------|3---3---3-3---5|---------------|3---3---3-3---5|
  1 & 2 & 3 & 4 & 1 & 2 & 3 & 4 &

  Bb5             G5
G|---------------|---------------|---------------|---------------|
D|---------------|---------------|---------------|---------------|
A|1---1---1-1---1|---------------|---------------|---------------|
E|---------------|3---3---3-3---3|3---3---3---3--|3---3---3-3-3-3|
  1 & 2 & 3 & 4 & 1 & 2 & 3 & 4 & 1 & 2 & 3 & 4 & 1 & 2 & 3 & 4 &

[Chorus] Play 4 times
 D                G
G|---------------|---------------|
D|--------4------|---------------|*
A|5---5-5---5----|---------------|*
E|---------------|3---3-3-3-3----|
  1 & 2 & 3 & 4 & 1 & 2 & 3 & 4 &

Solo ( same as verse ) with this bar towards the end
G|---------------|
D|---------------|
A|8---7-8-7-5-3--|
E|---------------|
  1 & 2 & 3 & 4 &


[Outro] Play 4 times

  D               G                 D
G|---------------|---------------| |----------------|
D|--------5-4----|---------------|*|----------------|
A|5---5-5-----5--|------------3--|*|5---------------|
E|---------------|3---3-3-3-5---5| |----------------|
  1 & 2 & 3 & 4 & 1 & 2 & 3 & 4 &


************************************
Copied from the PVG, think its about 95% right
Tabbed by David Ryan

************************************

            
            
Suggest correction
Creating personal tab
Creating personal tab
You can edit any tab online and save it as your Personal.

You can edit, replace or remove any tab part or add personal notes – all changes will be seen only by you.

Personal tabs can be accessed anytime from any device, even offline.
Learn more »
Give kudos to tab author, rate the tab!
1 2 3 4 5
comments
print report bad tab
guest
Wanna post a correction for this tab? Suggest correction