Oops, an error
Loading. Please wait.

Cest La Vie tab

version 2
version 2

Whole song

6,837 views 66 this week
1 commentread comment
1 2 3 4 5
x 9
add to favorites
×
Save as Personal and add changes to this tab that will be seen only by you. Learn more ›
×
You can save this tab as Personal to edit and correct it or add notes. All changes will be seen only by you. Learn more »
launch autoscroll
font size
0
reset
how to read this tab
guitar tuner
edit
Autoscroll
slow
fast
+/-
esc
set tempo
stop
Author
C'EST LA VIE - Stereophonics
Tabbed by: George
Tuning: Standard

Hi, this is my first tab. Hope you get on with it well, feel free to comment
any changes you think it needs and please rate!

[Intro & Verse 1] (Played slowly)
e|----------------------------------------------------------------------------|
B|----------------------------------------------------------------------------|
G|-7-7-7-7-7-7-7--10--7-7-7-7-7-7-7--10--8-8-8-8-8-8-8--10--8-8-8-8-8-8-8--10-|
D|-8-8-8-8-8-8-8--10--8-8-8-8-8-8-8--10--8-8-8-8-8-8-8--10--8-8-8-8-8-8-8--10-|
A|-8-8-8-8-8-8-8--8---8-8-8-8-8-8-8--8---6-6-6-6-6-6-6--8---6-6-6-6-6-6-6--8--|   
E|-6-6-6-6-6-6-6------6-6-6-6-6-6-6-------------------------------------------|   x3

   "Hell and heaven they can wait for you..."
e|---------------------------------------------------------------------------|
B|---------------------------------------------------------------------------|
G|-10-10-10-10-10-10-10-10---8-8--10-10-10-10-10-10-10-10--------------------|
D|-10-10-10-10-10-10-10-10---8-8--10-10-10-10-10-10-10-10--------------------|
A|-8--8--8--8--8--8--8--8----6-6--8--8--8--8--8--8--8--8---------------------|
E|---------------------------------------------------------------------------|

[Chorus] (Played faster)
e|---------------------------------------------------------------------------|
B|---------------------------------------------------------------------------|
G|-7-7-7-7-7-7-7-7-7-7-7-7-7-7-7-7-7--10--8-8-8-8-8-8-8-8-8-8-8-8-8-8-8-8-8--|
D|-8-8-8-8-8-8-8-8-8-8-8-8-8-8-8-8-8--10--8-8-8-8-8-8-8-8-8-8-8-8-8-8-8-8-8--|
A|-8-8-8-8-8-8-8-8-8-8-8-8-8-8-8-8-8---8--6-6-6-6-6-6-6-6-6-6-6-6-6-6-6-6-6--|
E|-6-6-6-6-6-6-6-6-6-6-6-6-6-6-6-6-6-----------------------------------------|

[Verse 2] - Chords same as Verse 1
          - Lead part: 
e|---------------------------------------------------------------------------|
B|----------------11---------------------------------------------------------|
G|----------------------------10p5-10----------------------------------------|
D|-8p6---------------------------------------8p6------6-8--------------------|
A|---------------------------------------------------------------------------|
E|---------------------------------------------------------------------------|

[Chorus] - Same chords as 1st Chorus (x2), before this:
   "I said they're playing our song on the radio"
e|---------------------------------------------------------------------------|
B|---------------------------------------------------------------------------|
G|-10-10-10-10--12-12-12-12--8-8-8-8--10-10-10-10----------------------------|
D|-10-10-10-10--12-12-12-12--8-8-8-8--10-10-10-10----------------------------|
A|-8--8--8--8---10-10-10-10--6-6-6-6--8--8--8--8-----------------------------|
E|---------------------------------------------------------------------------|

[Break]
   "Such as life in the rear view mirror"
e|---------------------------------------------------------------------------|
B|---------------------------------------------------------------------------|
G|-7-7-7-7-7-7-7--10--7-7-7-7-7-7-7--10-10-10-10-10-10-10-10-10-10-10-10-10--|
D|-8-8-8-8-8-8-8--10--8-8-8-8-8-8-8--10-10-10-10-10-10-10-10-10-10-10-10-10--|
A|-8-8-8-8-8-8-8--8---8-8-8-8-8-8-8--8--8--8--8--8--8--8--8--8--8--8--8--8---|
E|-6-6-6-6-6-6-6------6-6-6-6-6-6-6------------------------------------------|

(Chorus into Outro ("We don't belong anywhere") - Chorus chords x6)

************************************

| p  Pull-off

************************************

            
            
Suggest correction
Creating personal tab
Creating personal tab
You can edit any tab online and save it as your Personal.

You can edit, replace or remove any tab part or add personal notes – all changes will be seen only by you.

Personal tabs can be accessed anytime from any device, even offline.
Learn more »
comments
print report bad tab
1 comment total.
-2 reply
dr.m.lorenzini 10 Nov 01, 2015 02:42 AM

The chorus clearly has the same chord pattern as the verse and the bridge is just wrong. Check out the chords for the acoustic version, much better...

guest
You may want to rate the tab now too:
select rating
Wanna post a correction for this tab? Suggest correction