Oops, an error
Loading. Please wait.

Daisy Lane tab

5,577 views 1 this week
2 commentsread comments
1 2 3 4 5
x 3
add to favorites
×
Save as Personal and add changes to this tab that will be seen only by you. Learn more ›
×
You can save this tab as Personal to edit and correct it or add notes. All changes will be seen only by you. Learn more »
launch autoscroll
font size
0
reset
how to read this tab
guitar tuner
edit
Autoscroll
slow
fast
+/-
esc
set tempo
stop
Author
Difficulty
Daisy Lane-Stereophonics

I found this song on a Fan Site.

Intro Part 1
(Fades In)
e----11----12----12----12----12----12----11-----| This Runs Throughout
B-12----12----12----12----12----12----12----12--| The Song.
G-----------------------------------------------|
D-----------------------------------------------|
A-----------------------------------------------|
E-----------------------------------------------| 

Intro Part 2

Guitar 1

e----11----12----12----12----12----12----11-----| 
B-12----12----12----12----12----12----12----12--| 
G-----------------------------------------------|
D-----------------------------------------------|
A-----------------------------------------------|
E-----------------------------------------------| 

Guitar 2
let The Chords Ring

e-4~~~~--x------0~~~~--|
B-5~~~~--2~~~~--0~~~~--|
G-6~~~~--2~~~~--1~~~~--|
D-6~~~~--2~~~~--2~~~~--|
A-4~~~~--0~~~~--2~~~~--| 
E---------------0~~~~--| This Also Runs Throughout The Verses And Choruses.



Guitar 3
 This Enters At Some Point In The Second Chorus.
e------------|
B------12----|
G-9-8-----8--|
D------------|
A------------|
E------------|

Bridge

Guitar 1

e----11----12----12----12----12----12----11-----| 
B-12----12----12----12----12----12----12----12--| Runs Throughout The 
G-----------------------------------------------| Bridge.
D-----------------------------------------------|
A-----------------------------------------------|
E-----------------------------------------------| 

Guitar 2
 Let The Chords Ring.
e-4~~~~--0~~~~--0~~~~--|    Then  e----------------|
B-5~~~~--0~~~~--2~~~~--|          B-4-4-4-4-4-4-4--|
G-6~~~~--1~~~~--2~~~~--|          G-4-4-4-4-4-4-4--|
D-6~~~~--2~~~~--2~~~~--|          D-4-4-4-4-4-4-4--|
A-4~~~~--2~~~~--0~~~~--|          A-2-2-2-2-2-2-2--|
E--------0~~~~---------| x3       E----------------|

Gutiar 3
 This Plays This Riff Lightly.
e------------|
B------12----|
G-9-8-----8--|
D------------|
A------------|
E------------|

Guitar 4
 And This Plays It With Distortion.
e------------|
B------12----|
G-9-8-----8--|
D------------|
A------------|
E------------|

I Think Thats About Right!

            
            
Suggest correction
Creating personal tab
Creating personal tab
You can edit any tab online and save it as your Personal.

You can edit, replace or remove any tab part or add personal notes – all changes will be seen only by you.

Personal tabs can be accessed anytime from any device, even offline.
Learn more »
Give kudos to tab author, rate the tab!
1 2 3 4 5
comments
print report bad tab
2 comments total.
0 reply
soupdragon 303 Oct 29, 2007 11:07 AM

Not that good.
The intro is right, but the chords sound wrong when you play it a against the track, (and that is with the capo).
3 stars from me.

0 reply
gavhull27 176 Jan 05, 2008 05:00 AM

yeah i agree think intro is good but chords are wrong could be without a capo ???

guest
You may want to rate the tab now too:
select rating
Wanna post a correction for this tab? Suggest correction