Oops, an error
Loading. Please wait.

Dakota Tab

version 3
version 3
7,026 views 3 this week
no commentswrite comment
1 2 3 4 5
x 3
add to favorites
launch autoscroll
font size
0
reset
how to read this tab
guitar tuner
Autoscroll
slow
fast
+/-
esc
set tempo
stop
Help us to improve Ultimate-Guitar.com Take our survey!
×
Difficulty
intermediate
Standard Tuning

I'm pretty sure Kelly used a Jaguar on this song. You can get the tone easily with a
strat with the middle pickup selected. You'll want a thin distortion as well (I play
through a Marshall MG100 with OD2 selected and the gain set to 5). You may also want
a wah, a phaser and probably a flange pedal as well.


[Intro]

(Fig. 1)

Gtr. 1- This is probably played on a synth but you can get the desired  
        effect with distortion and a slow heavy flange

P.M.-----------------------------------------------------------------|

e|--------------------------------------------------------------------|
B|--------------------------------------------------------------------|
G|--------------------------------------------------------------------|
D|-/9-9-9-9-9-9-9-9-9-9-9-9-9-9-9-9\-6-6-6-6-6-6-6-6-6-6-6-6-6-6-6-6\-|
A|-/7-7-7-7-7-7-7-7-7-7-7-7-7-7-7-7\-4-4-4-4-4-4-4-4-4-4-4-4-4-4-4-4\-|
E|--------------------------------------------------------------------|

P.M.---------------------------------------------------------------|

e|------------------------------------------------------------------|
B|------------------------------------------------------------------|
G|------------------------------------------------------------------|
D|-2-2-2-2-2-2-2-2-2-2-2-2-2-2-2-2/-9-9-9-9-9-9-9-9-9-9-9-9-9-9-9-9-|
A|-0-0-0-0-0-0-0-0-0-0-0-0-0-0-0-0/-7-7-7-7-7-7-7-7-7-7-7-7-7-7-7-7-|
E|------------------------------------------------------------------|


[Verse]

Gtr. 1- plays figure 1
Gtr. 2- keep repeating this

e|-7---7---7---7---7---7---7---7---|
B|---9---9---9---9---9---9---9---9-|
G|---------------------------------|
D|---------------------------------|
A|---------------------------------|
E|---------------------------------|

Gtr. 3

e|---12----12--11v-----12-----------------------------|
B|------------------------12v--------12v----------12v-|
G|-9------------------------------9------------9------|
D|----------------------------------------------------|
A|----------------------------------------------------|
E|----------------------------------------------------|

Gtr. 4-plays in verse 2 and 3

e|-------------------------------------------|
B|-9v----9b(10)r9v---------9v----12b(14)r12v-|
G|-------------------------------------------|
D|-------------------------------------------|
A|-------------------------------------------|
E|-------------------------------------------|


[Chorus]

Gtr. 3-play this part at end of verse

e|---------------------------------|
B|---------------------------------|
G|-9-9-9-9-9-9-9-9-9-9-9-9-9-9-9-9-|
D|---------------------------------|
A|---------------------------------|
E|---------------------------------|

Gtr. 1- flange off
Gtr. 3

          You made me feel like the one, Made me feel like the one

e|-----------------------------------------------------------------|
B|-----------------------------------------------------------------|
G|-----------------------------------------------------------------|
D|-7-7-7-7-7-7-7-7-7-7-7-7-7-7-7-7-7-7-7-7-7-7-7-7-7-7-7-7-7-7-7-7-|
A|-7-7-7-7-7-7-7-7-7-7-7-7-7-7-7-7-7-7-7-7-7-7-7-7-7-7-7-7-7-7-7-7-|
E|-5-5-5-5-5-5-5-5-5-5-5-5-5-5-5-5-5-5-5-5-5-5-5-5-5-5-5-5-5-5-5-5-|
|
e|-11b(12)-11v------------------------11b(12)-11v------------------|
B|--------------------12v---9v--------------------------12v----9v--|
G|-----------------------------------------------------------------|
D|-----------------------------------------------------------------|
A|-----------------------------------------------------------------|
E|-----------------------------------------------------------------|

e|-----------------------------------------------------------------|
B|-----------------------------------------------------------------|
G|-----------------------------------------------------------------|
D|-2-2-2-2-2-2-2-2-2-2-2-2-2-2-2-2-2-2-2-2-2-2-2-2-2-2-2-2-2-2-2-2-|
A|-2-2-2-2-2-2-2-2-2-2-2-2-2-2-2-2-2-2-2-2-2-2-2-2-2-2-2-2-2-2-2-2-|
E|-0-0-0-0-0-0-0-0-0-0-0-0-0-0-0-0-0-0-0-0-0-0-0-0-0-0-0-0-0-0-0-0-|
|
e|-----------------------------------------------------------------|
B|-9b(10)r9b(10)r9b(10)r9---------9b(10)r9b(10)r9b(10)r9-----------|
G|-----------------------------------------------------------------|
D|---------------------------------------------------------(X\)----|
A|---------------------------------------------------------(X\)----|
E|-----------------------------------------------------------------|

pick scrape on repeat


[Bridge]

Gtr. 1-plays chords in 16th notes

e|---------------|
B|---------------|
G|-9-------------|
D|-9-----9-----7-|
A|-7-----9-----7-|
E|-------7-----5-|

Gtr. 3-plays this on A5 chord. Uses either wah or phaser, but a fast heavy
       flange works fine.

e|-------------------------------------------|
B|-------------------------------------------|
G|------------9v---11v--------------9v---11v-|
D|-9v---11v--------------9v---11v------------|
A|-------------------------------------------|
E|-------------------------------------------|

[Outro]

Gtr. 1-with flange and PM. Play in 16th notes.

e|--------------------------------|
B|--------------------------------|
G|--------------------------------|
D|-9------13------14------14------|
A|-7------11------12------12------|
E|--------------------------------|


************************************
 
| P.M.  Palm Mute
| V     Vibrato
| B     Bend Note
| R     Release Bent Note
| X/    Pick Scrape
| /    Slide

************************************
Suggest correction
Give kudos to tab author, rate the tab!
1 2 3 4 5
comments
print report bad tab
guest
You may want to rate the tab now too:
select rating
Wanna post a correction for this tab? Suggest correction