Oops, an error
Loading. Please wait.

Have A Nice Day tab

version 1
version 1

Whole song

Interactive

20,582 views 6 this week
11 commentsread comments
1 2 3 4 5
x 19
add to favorites
×
Save as Personal and add changes to this tab that will be seen only by you. Learn more ›
×
You can save this tab as Personal to edit and correct it or add notes. All changes will be seen only by you. Learn more »
launch autoscroll
font size
0
reset
how to read this tab
guitar tuner
edit
Autoscroll
slow
fast
+/-
esc
set tempo
stop
Author
-------------------------------------------------------------------------------
                             Have a nice day - Stereophonics
-------------------------------------------------------------------------------
Tabbed by: simon
Email: simondcollings@hotmail.com

Tuning:standard EADGBe

Timing 4/4

e|-----------------|-------------------|
B|-4----4--2----4--|--4---2-------4----|
G|-----------------|----------4--------|
D|-----------------|-------------------|
A|-----------------|-------------------|
E|-----------------|-------------------|

    Ba     ba da    ba    ba  ba  da    da

Believe it or not this is all the way through the song
Suggest correction
Creating personal tab
Creating personal tab
You can edit any tab online and save it as your Personal.

You can edit, replace or remove any tab part or add personal notes – all changes will be seen only by you.

Personal tabs can be accessed anytime from any device, even offline.
Learn more »
comments
print report bad tab
11 comments total. Showing first comments.
-1 reply
dutchpepper 20 May 19, 2003 08:00 PM

hehe, nice line... but wrong... Try it like this
B-4---2-2---4--4-----2--4
G-----------------4------

;) And try some B E A and G#m cords

good luck

Arjan

0 reply
BasketCase87 80 Dec 21, 2003 07:00 PM

do u honestly think kelly jones is so untalented??????

first of all you play A and A7 (or somethin like that, im not xactly sure) and second of all this is only a small part of the intro

learn to play guitar before attempting to tab

0 reply
diarmuid5 51 Jan 25, 2006 06:30 AM

do u own a guitar?

guest
You may want to rate the tab now too:
select rating
Wanna post a correction for this tab? Suggest correction