Oops, an error
Loading. Please wait.

Pick A Part Thats New tab

version 2
version 2

Whole song

Interactive

8,415 views 12 this week
1 commentread comment
1 2 3 4 5
x 8
add to favorites
×
Save as Personal and add changes to this tab that will be seen only by you. Learn more ›
×
You can save this tab as Personal to edit and correct it or add notes. All changes will be seen only by you. Learn more »
launch autoscroll
font size
0
reset
how to read this tab
guitar tuner
backing track
0:00
0:00
edit
Autoscroll
slow
fast
+/-
esc
set tempo
stop
Author
Difficulty
Pick a Part Thats New-Stereophonics

Music By-Kelly Jones
         Richard Jones
         Stuart Cable

Chord Chart
      EADGBe
A    :x02220 
D    :xx0232
Asus2:x02200
Dsus2:xx0220
D5   :xx0230
E    :022100

Tab Notatino
h=Hammer-On
p=Pull-Off

Intro

e---------------------------------------------------------------|
B---------------------------------------------------------------|
G--------------------------------9h11-9h11-9h11-9h11-9h11-9h11--|
D-9h11-9h11-9h11-9h11-9h11-9h11--0----0----0----0----0----0-----|
A-0----0----0----0----0----0------------------------------------|
E---------------------------------------------------------------| x2


               A                             D
e---------------------------------------------------------------|
B---------------------------------------------------------------|
G--------------------------------9h11-9h11-9h11-9h11-9h11-9h11--|
D-9h11-9h11-9h11-9h11-9h11-9h11--0----0----0----0----0----0-----|
A-0----0----0----0----0----0------------------------------------|
E---------------------------------------------------------------| 


             E                    D
e-------------------------------------|
B-------------------------------------|
G--------------------------------7-7--|
D--------------------------------7-7--|
A-9h11-9h11-9h11-9h11-9h11-9h11--5-5--|
E-0----0----0----0----0----0----------|

Verse
  Asus2 (Let every Chord Ring)                 D5
e-0-----------------0------------------0---------------0-------------|
B-0-----------------0------------------3---------------3----------0--|
G-2-----------------2------------------2---------------2----2--------|
D-2-----------------2------------------0---------------0-------0-----|
A-0-----------------0------------------x---------------x--4----------|
E-x-----------------x------------------x---------------x-------------|

  Asus2                                        D5
e-0-----------------0------------------0---------------0-------------|
B-0-----------------0------------------3---------------3-------------|
G-2-----------------2------------------2---------------2-------------|
D-2-----------------2------------------0---------------0-------------|
A-0-----------------0------------------x---------------x-------------|
E-x-----------------x------------------x---------------x-------------|
 
e-------------------------------------|
B-------------------------------------|
G--------------------------------7-7--|
D--------------------------------7-7--|
A-9h11-9h11-9h11-9h11-9h11-9h11--5-5--|
E-0----0----0----0----0----0----------|

Chorus


            Asus2                             Dsus2
e-----------------------------------------------------------------|
B-----------------------------------------------------------------|
G----------------------------------9h11-9h11-9h11-9h11-9h11-9h11--|
D-9h11-9h11-9h11-9h11-9h11-9h11----0----0----0----0----0----0-----|
A-0----0----0----0----0----0--------------------------------------|
E-----------------------------------------------------------------| x2

             E                   D
e-------------------------------------|
B-------------------------------------|
G--------------------------------7-7--|
D--------------------------------7-7--|
A-9h11-9h11-9h11-9h11-9h11-9h11--5-5--|
E-0----0----0----0----0----0----------|

Solo

e------------------7-7-7-7-5-5-5-5-7-7-7-7-5-5-5-5--|
B------------------6-6-6-6-6-6-6-6-6-6-6-6-6-6-6-6--|
G------------------7-7-7-7-7-7-7-7-7-7-7-7-7-7-7-7--|
D-7-7-7-7-7-7-7-7-----------------------------------|
A-0-0-0-0-0-0-0-0-----------------------------------|
E---------------------------------------------------| x2

e-----------------------------------------------------|
B-----------------------------------------------------|
G------------------------------------------------7-7--|
D--------------------------------11p9------------7-7--|
A-9h11-9h11-9h11-9h11-9h11-9h11--------11p9------5-5--|
E-0----0----0----0----0----0-----------------11-------|

Outro

e-0-0-0-0-0-0-0-0-0-0-0-0-0-0-0-0-------0--|
B-0-0-0-0-0-0-0-0-0-0-0-0-0-0-0-0-------0--|
G-1-1-1-1-1-1-1-1-1-1-1-1-1-1-1-1--7-7--2--|
D-2-2-2-2-2-2-2-2-2-2-2-2-2-2-2-2--7-7--2--|
A-2-2-2-2-2-2-2-2-2-2-2-2-2-2-2-2--5-5--0--|
E-0-0-0-0-0-0-0-0-0-0-0-0-0-0-0-0-------x--|

Order

Intro
Verse
Chorus
Verse
Chorus
Solo
Chorus
Outro

Thats It Enjoy!

            
            
Suggest correction
Creating personal tab
Creating personal tab
You can edit any tab online and save it as your Personal.

You can edit, replace or remove any tab part or add personal notes – all changes will be seen only by you.

Personal tabs can be accessed anytime from any device, even offline.
Learn more »
comments
print report bad tab
1 comment total.
0 reply
the_guy 230 Nov 12, 2006 05:51 AM

not bad, but some areas like the intro need to be tidied up.

guest
You may want to rate the tab now too:
select rating
Wanna post a correction for this tab? Suggest correction