Oops, an error
Loading. Please wait.

Vegas Two Times Tab

version 1
version 1

Intro

Whole song

Interactive

4,082 views 1 this week
3 commentsread comments
1 2 3 4 5
x 3
add to favorites
launch autoscroll
font size
0
reset
how to read this tab
guitar tuner
×
Best way to learn
"Vegas Two Times"
Autoscroll
slow
fast
+/-
esc
set tempo
stop
k ive only worked out intro the verses seem quite strange so i cudnt do that
but here is a correct version of the intro hope u like it

e-------------------------------|
b-------------------------------|
g-------------------------------|
D-------------------------------|
A--5---3--3--3----------3--5-5--|
E-------55-55-5-2-3-4-5---------|

i hope thats ok if not email me at kinky_dude2k@hotmail.com
also if anyone does have the verses or middle then plz stick
them up cos id quite like to know them!
cheers
Suggest correction
Give kudos to tab author, rate the tab!
1 2 3 4 5
comments
print report bad tab
3 comments total.
0 reply
RHCP_25 20 Apr 20, 2006 07:58 AM

it sounds a bit dodgy but itz ok i suppose

0 reply
RHCP_25 20 Apr 27, 2006 08:52 AM

i think its

A|-5-3-----3------3-----3-5--------------3---5-----------------------
E|-----55-----55----55--------2-3-4-5--------------------------------

0 reply
Dannystrumpop 30 Mar 19, 2007 05:35 AM

I find playing this sounds as close as I can manage so far:

e--------------------------------------------
B-3-3-3-3-3-3--3-3--3-3--3-3-3---------------
G-2-2-2-2-2-2--2-2--2-2--2-2-2---------------
D-0-0-0-0-0-0--0-0--0-0--0-0-0---------------
A---------3-0--3-0--3-0--3-0-0---------3-5---
E------------------------------2-3-4-5-------

Maybe not the exact rhythm but you get the idea!

Hope that helped

guest
You may want to rate the tab now too:
select rating
Wanna post a correction for this tab? Suggest correction