Oops, an error
Loading. Please wait.

Violins And Tambourines tab

version 1
version 1

Whole song

6,527 views 12 this week
1 commentread comment
1 2 3 4 5
x 5
add to favorites
×
Save as Personal and add changes to this tab that will be seen only by you. Learn more ›
×
You can save this tab as Personal to edit and correct it or add notes. All changes will be seen only by you. Learn more »
launch autoscroll
font size
0
reset
how to read this tab
guitar tuner
edit
Autoscroll
slow
fast
+/-
esc
set tempo
stop
Author
-------------------------------------------------------------------------------
                    VIOLINS AND TAMBOURINES - Stereophonics
-------------------------------------------------------------------------------
Tabbed by: Diego Flores
E-mail: diegofe22@gmail.com

Tuning: Standard

verse/chorous
   dm
e|----------------------------------------------------------------------|
B|----3--1--5h6--1--1h3-------------------------------------------------|
G|----------------------------------------------------------------------|
D|-0--------------------------------------------------------------------|
A|----------------------------------------------------------------------|
E|----------------------------------------------------------------------|

*or*
   dm
e|----------0h1--------------------------------------------------------------|
B|----3--1-------1--1h3------------------------------------------------------|
G|---------------------------------------------------------------------------|
D|-0-------------------------------------------------------------------------|
A|---------------------------------------------------------------------------|
E|---------------------------------------------------------------------------|
fade out

heavy part
D5 till the end of the song

*Lyrics*

Looking out the window,
Staring at the road,
Doesn’t really matter,
Which way to go,
Everything is changing,
Nothing ever seems to stay the same.

Violins and tambourines and candy canes and magazines,
Preaching sermons on the street, I killed a man but life is cheap, they say.

Stopped on the way home,
Side of the road,
Met her at the drug store,
Saving peoples souls,
She offered me redemption,
I’ll take a drink instead if that’s ok.

Violins and tambourines and candy canes and magazines,
Preachers sermons on the street, I killed a man but life is cheap, they say.

Violins and tambourines and candy canes and magazines,
Preachers sermons on the street, I killed a man but life was cheap.

Violins and tambourines and children sing songs in the street,
Innocence is underrated, knock me out, I’ll be sedated.

Violins and tambourines and pounding drums in unity,
Choose your soul emancipated, every time we meet she wants to save me.

She wants to save me,
Can’t she save me?
Won’t you save me?
Suggest correction
Creating personal tab
Creating personal tab
You can edit any tab online and save it as your Personal.

You can edit, replace or remove any tab part or add personal notes – all changes will be seen only by you.

Personal tabs can be accessed anytime from any device, even offline.
Learn more »
comments
print report bad tab
1 comment total.
+1 reply
ryand111 51 Mar 28, 2014 12:13 PM

e|----------------------------------------------------------------------|
B|----------5h6--5---7--------------------------------------------------|
G|----7--5--------------------------------------------------------------|
D|----------------------------------------------------------------------|
A|-5--------------------------------------------------------------------|
E|----------------------------------------------------------------------|


I personally prefer this, it involves less moving up and down the neck, still a solid tab and sounds good to me. Thanks!

guest
You may want to rate the tab now too:
select rating
Wanna post a correction for this tab? Suggest correction