Oops, an error
Loading. Please wait.

We Share The Same Sun Tab

18,156 views 21 this week
1 commentread comment
1 2 3 4 5
excellent!
x 14
add to favorites
launch autoscroll
font size
0
reset
how to read this tab
guitar tuner
Tab Pro tools
  • play this tab
  • loop segment
  • change instrument
  • show fretboard
  • metronome
×
Best way to learn
"We Share The Same Sun"
Autoscroll
slow
fast
+/-
esc
set tempo
stop
Contributor
-------------------------------------------------------------------------------
                 WE SHARE THE SAME SUN - Stereophonics
-------------------------------------------------------------------------------
Tabbed by: AledJames
E-mail: aledj14@gmail.com
Tuning: Standard

INTRO

e|------------------------------------------------------------------------|
B|----3-------3-------3-------3-------3------3-------3-------3------------|
G|--3---3---3---3---3---3---3---3---3--3---3---3---3---3---3---3----------|
D|1-------1-------0-------0-----------------------------------------------|
A|------------------------------------------------------------------------|
E|--------------------------------3------3-------1-------1----------------| x2


VERSE 1

e|------------------------------------------------------------------------|
B|----3-------3-------3-------3-------3------3-------3-------3------------|
G|--3---3---3---3---3---3---3---3---3--3---3---3---3---3---3---3----------|
D|1-------1-------0-------0-----------------------------------------------|
A|------------------------------------------------------------------------|
E|--------------------------------3------3-------1-------1----------------|
  Calling         over            to seize my    hunger


e|------------------------------------------------------------------------|
B|----3-------3-------3-------3-------3------3-------3-------3------------|
G|--3---3---3---3---3---3---3---3---3--3---3---3---3---3---3---3----------|
D|1-------1-------0-------0-----------------------------------------------|
A|------------------------------------------------------------------------|
E|--------------------------------3------3-------1-------1----------------|
  To see you      to feel you     to be with,    near you

BRIDGE

e|------------------------------------------------------------------------|
B|----3-------3-------3-------3-------3------3-------3-------3------------|
G|--3---3---3---3---3---3---3---3---3--3---3---3---3---3---3---3----------|
D|1-------1-------0-------0-----------------------------------------------|
A|------------------------------------------------------------------------|
E|--------------------------------3------3-------1-------1----------------|
  We hold out     we hold on      I'm older      colder


e|------------------------------------------------------------------------|
B|----3-------3-------3-------3-------3------3-------3-------3------------|
G|--3---3---3---3---3---3---3---3---3--3---3---3---3---3---3---3----------|
D|1-------1-------0-------0-----------------------------------------------|
A|------------------------------------------------------------------------|
E|--------------------------------3------3-------1-------1----------------|
  Here it comes   light up my     sky

Chorus

  Emaj            Dmaj9           G               F
e|3-3-3-3-3-3-3-3-3-3-3-3-3-3-3-3-3-3-3-3-3-3-3-3-1-1-1-1-1-1-1-1-----------|
B|3-3-3-3-3-3-3-3-3-3-3-3-3-3-3-3-3-3-3-3-3-3-3-3-1-1-1-1-1-1-1-1-----------|
G|3-3-3-3-3-3-3-3-3-3-3-3-3-3-3-3-3-3-3-3-3-3-3-3-1-1-1-1-1-1-1-1-----------|
D|1-1-1-1-1-1-1-1-0-0-0-0-0-0-0-0-5-5-5-5-5-5-5-5-3-3-3-3-3-3-3-3-----------|
A|0-0-0-0-0-0-0-0-0-0-0-0-0-0-0-0-5-5-5-5-5-5-5-5-3-3-3-3-3-3-3-3-----------|
E|0-0-0-0-0-0-0-0-0-0-0-0-0-0-0-0-3-3-3-3-3-3-3-3-1-1-1-1-1-1-1-1-----------|
  Yeah we shaaaaaaare the saaaaaame suuuuun everydaaaaayyy
  x2

VERSE 2

Same guitar part as verse 1.
Lyrics:
White lines, blinding, headlights, driving
To see you, to feel you, to be with, near you

Repeat bridge
Repeat chorus
Also add this bit (guitar is the same as the rest of the chorus)
When the light goes out for you at home it shines for at early dawn
We're worlds apart but now I see you're in my heart whenever we are apart
And the sky shines bright

The guitar is the same as the chorus in this bit too
Live in the morning sun (in the morning, in the morning sun)
Our time has just begun (time has just be, time has just begun)
Swim in the morning sun (in the morning, in the morning sun)
Our time to run will come

GUITAR SOLO

  Emaj            Dmaj9           G               F
e|-------------------------------------------------------------------------|
B|-8~-------------11-10-7---------3---------------2h3~---------------------|
G|-------------------------------------------------------------------------|
D|-------------------------------------------------------------------------|
A|-------------------------------------------------------------------------|
E|-------------------------------------------------------------------------|

  Emaj            Dmaj9           G               F
e|---------------------------------------------------------------------------|
B|-8~-------------11-10-11---------15~---------------------------------------|
G|---------------------------------------------------------------------------|
D|---------------------------------------------------------------------------|
A|---------------------------------------------------------------------------|
E|---------------------------------------------------------------------------|


Repeat chorus to end it

I think most of it is right but some of the solo might be wrong
Comment if you have any corrections you'd like me to make


| h   hammer-on
| ~   vibrato


************************************
comments
print report bad tab
1 comment total.
0 reply
andrew.hewison. wrote on April 21 2013, 06:17 pm

INTRO

e|------------------------------------------------------------------------|
B|----3-------3-------3-------3-------3------3-------3-------3------------|
G|--3---3---3---3---3---3---3---3---3--3---3---3---3---3---3---3----------|
D|1-------1-------0-------0-----------------------------------------------|
A|------------------------------------------------------------------------|
E|--------------------------------3------3-------1-------1----------------| x2

VERSE 1

e|------------------------------------------------------------------------|
B|----3-------3-------3-------3-------3------3-------3-------3------------|
G|--3---3---3---3---3---3---3---3---3--3---3---3---3---3---3---3----------|
D|1-------1-------0-------0-----------------------------------------------|
A|------------------------------------------------------------------------|
E|--------------------------------3------3-------1-------1----------------|
Calling over to seize my hunger

e|------------------------------------------------------------------------|
B|----3-------3-------3-------3-------3------3-------3-------3------------|
G|--3---3---3---3---3---3---3---3---3--3---3---3---3---3---3---3----------|
D|1-------1-------0-------0-----------------------------------------------|
A|------------------------------------------------------------------------|
E|--------------------------------3------3-------1-------1----------------|
To see you to feel you to be with, near you

BRIDGE

e|------------------------------------------------------------------------|
B|----3-------3-------3-------3-------3------3-------3-------3------------|
G|--3---3---3---3---3---3---3---3---3--3---3---3---3---3---3---3----------|
D|1-------1-------0-------0-----------------------------------------------|
A|------------------------------------------------------------------------|
E|--------------------------------3------3-------1-------1----------------|
We hold out we hold on I'm older colder

e|------------------------------------------------------------------------|
B|----3-------3-------3-------3-------3------3-------3-------3------------|
G|--3---3---3---3---3---3---3---3---3--3---3---3---3---3---3---3----------|
D|1-------1-------0-------0-----------------------------------------------|
A|------------------------------------------------------------------------|
E|--------------------------------3------3-------1-------1----------------|

I want to post or [tab]
guest
You may want to rate the tab now too:
select rating
Please do not post tabs as comments. Select "correction" instead!