Oops, an error
Loading. Please wait.

Chiisana Mahou Bass Tab

version 1
version 1

Whole song

Interactive

7 views 1 this week
no commentswrite comment
1 2 3 4 5
3 more votes to show rating
add to favorites
launch autoscroll
font size
0
reset
guitar tuner
Autoscroll
slow
fast
+/-
esc
set tempo
stop
Help us to improve Ultimate-Guitar.com Take our survey!
×
Author
Difficulty
intermediate
[Intro]

     E  E  E  S E  S E  E  E     E  E  E  S E  S E  E  E   
G||---------------------------|---------------------------|
D||--9--9--9--9-9--9-9--9--9--|--9--9--9--9-9--9-9--9--9--|
A||---------------------------|---------------------------|
E||---------------------------|---------------------------|


    E  E  E  S E  S E  E  E     E  E  E  S E  S E  E  E   
G|---------------------------|---------------------------|
D|--6--6--6--6-6--6-6--6--6--|--6--6--6--6-6--6-6--6--6--|
A|---------------------------|---------------------------|
E|---------------------------|---------------------------|


    E  E  E  S E  S E  E  E       E   E   E   S  E   S  E   E   E   
G|----------------------------|------------------------------------|
D|--2--2--2--2-2--2-2--2--2s--|--13--13--13--13-13--13-13--13--13--|
A|----------------------------|------------------------------------|
E|----------------------------|------------------------------------|


     E   E   E   S  E   S  E   E   E     E  E  E  E  E  E  Q      
G|------------------------------------|--------------------------|
D|--11--11--11--11-11--11-11--11--11--|--------------------------|
A|------------------------------------|--7--7--7--7--9--9--9\----|
E|------------------------------------|--------------------------|

[Verse 1]

    E  E  E  S E  S E  E  S S    E  E  E  S E  S E  E  S S  
G|----------------------------|----------------------------|
D|----------------------------|----------------------------|
A|--2--2--2--2-2--2-2--2--2-2-|--2--2--2--2-2--2-2--2--2-2-|
E|----------------------------|----------------------------|


    E  E  E  S E  S E  E  S S      E   E   E   S  S  E  E  E  E   
G|----------------------------|----------------------------------|
D|----------------------------|----------------------------------|
A|----------------------------|--/11--11--11--11-11-11--9--7--6--|
E|--4--4--4--4-4--4-4--4--4-4-|----------------------------------|


    E  E  E  S E  S E  E  E     E  E  E  S E  S E  E  E   
G|---------------------------|---------------------------|
D|---------------------------|---------------------------|
A|--7--7--7--7-7--7----9--7--|--6--6--6--6-6--6-6-----6--|
E|------------------7--------|---------------------7-----|


    E  E  S S E  S S E  S S E     E  E  E  E  E  E  E  E   
G|-----------------------------|--------------------------|
D|-----------------------------|--------------------------|
A|--4--4--4-4-4--4-4-4--4-4-7--|--7-----7--7--9--9--9--9--|
E|-----------------------------|-----7--------------------|


    E  E  E  E  E  E  E  E     E  E  E  E  E  E  E  E   
G|--------------------------|--------------------------|
D|--------------------------|--------------------------|
A|--2--2--2--2--2--2--2--2--|--2--2--2--2--2--2--2-----|
E|--------------------------|-----------------------2--|


    E  E  E  E  E  E  E  E     E  E  E  E  E  E  E  E   
G|--------------------------|--------------------------|
D|--------------------------|--------------------------|
A|--------------------------|--------------------------|
E|--4--4--4--4--4--4--4--4--|--4--4--4--4--4--4--2--2--|


    E  E  E  E  E  E  E  E     E  E  E  E  E  E  E  E   
G|--------------------------|--------------------------|
D|--------------------------|--------------------------|
A|--7--7--7--7--7--7--7--7--|--6--6--6--6--6--6--6--6--|
E|--------------------------|--------------------------|


    E  E  E  E  E  E  E  E     E  E  E  E  E  E  E  E   
G|--------------------------|--------------------------|
D|--------------------------|--------------------------|
A|--4--4--4--4--4--4--4-----|--------------------------|
E|-----------------------4--|--2--2--2--2--2--2--2--2--|


    E  E  E  E  E  E  E  E     E  E  E  E  E  E  E  E   
G|--------------------------|--------------------------|
D|--------------------------|--------------------------|
A|--2--2--2--2--2--2--2--2--|--2--2--2--2--2--2--2-----|
E|--------------------------|-----------------------2--|


    E  E  E  E  E  E  E  E     E  E  E  E  E  E  E  E   
G|--------------------------|--------------------------|
D|--------------------------|--------------------------|
A|--------------------------|--------------------------|
E|--4--4--4--4--4--4--4--4--|--4--4--4--4--4--4--2--2--|


    E  E  E  E  E  E  E  E     E  E  E  E  E  E  E  E   
G|--------------------------|--------------------------|
D|--------------------------|--------------------------|
A|--7--7--7--7--7--7--7--7--|--6--6--6--6--6--6--6--6--|
E|--------------------------|--------------------------|


    E  E  E  E  E  E  E  E     E  E  E  E  E  E  E  E     W                 
G|--------------------------|--------------------------|-------------------|
D|--------------------------|--------------------------|-------------------|
A|--4--4--4--4--4--4--4-----|--------------------------|--7----------------|
E|-----------------------4--|--2--2--2--2--2--2--2--2--|-------------------|


    H        E  E  Q       E  E  E  E  E  E  E  E     E  E  E  E  E  E  E  E   
G|----------------------|--------------------------|--------------------------|
D|----------------------|--------------------------|--------------------------|
A|--4--------L--6--7----|--6--6--6--6--6--4--------|--------------------------|
E|----------------------|--------------------7--6--|--4--4--4--4--2--2--2--2--|

[Chorus 1]

    E  E  E  E  E  E  E  E     E  E  E  E  E  E  E  E   
G|--------------------------|--------------------------|
D|--------------------------|--------------------------|
A|-----------------------7--|--4--4--4--4--4--6--7--4--|
E|--0--0--0--0--0--0--7-----|--------------------------|


    E  E  E  E  E  E  E  E     E  E  E  E  E  E  E  E   
G|--------------------------|--------------------------|
D|--------------------------|--------------------------|
A|--6--6--6--6--6--4--------|--------------------------|
E|--------------------7--6--|--4--4--4--4--4--2--0--2--|


    E  E  E  E  E  E  E  E     E  E  E  E  E  E  E  E   
G|--------------------------|--------------------------|
D|-----------------------6--|--4--4--4-----------4-----|
A|--4--4--4--4--4-----4-----|-----------4--4--4--------|
E|-----------------4--------|-----------------------2--|


    E  E  E  E  E  E  E  E     E  E  E  E   E   E  E  E   
G|--------------------------|------------------11-----8--|
D|--------------------------|--------------/9------9-----|
A|--2--2--2--2--2--------2--|--2--2--2--2----------------|
E|-----------------2--4-----|----------------------------|


    E  E  E  E  E  E  E  E     E  E  E  E  E  E  E  E   
G|--------------------------|--------------------------|
D|--------------------------|--------------------------|
A|--7--7--7--7--7-----9--7--|--4--4--4--6--6--6--7--7--|
E|-----------------7--------|--------------------------|


    E  E  E  E  E  E  E  E     E  E  E  E  E  E  E  E   
G|--------------------------|--------------------------|
D|-----------------------8--|--6--6--------------------|
A|--6--6--6--6--6-----6-----|--------9--9--7--7--6--6--|
E|-----------------6--------|--------------------------|


    E  E  E  E  E  E  E  E     E  E    E  E  E  E  E  E   
G|--------------------------|-------------6--------------|
D|--------------------------|--------4g6-----------------|
A|--4--4--4--4--4--4--4--4--|--4--4-------------6-----6--|
E|--------------------------|----------------------------|


    E  E  E  E  E  E  E  E     E  E  E  E  E  E  Q      
G|--------------------------|--------------------------|
D|--------------------------|--------------------------|
A|--7--7--7--7--7-----7--9--|--9--9--9--9--9--9--9\----|
E|-----------------7--------|--------------------------|

[Turnaround]

    E  E  E  S E  S E  E  S S    E  E  E  S E  S E  E  S S  
G|----------------------------|----------------------------|
D|----------------------------|----------------------------|
A|--2--2--2--2-2--2-2--2--2-2-|--2--2--2--2-2--2-2--2--2-2-|
E|----------------------------|----------------------------|


    E  E  E  S E  S E  E  S S      E   E   E   S  S  E  E  E  E   
G|----------------------------|----------------------------------|
D|----------------------------|----------------------------------|
A|----------------------------|--/11--11--11--11-11-11--9--7--6--|
E|--4--4--4--4-4--4-4--4--4-4-|----------------------------------|


    E  E  E  S E  S E  E  E     E  E  E  S E  S E  E  E   
G|---------------------------|---------------------------|
D|---------------------------|---------------------------|
A|--7--7--7--7-7--7----9--7--|--6--6--6--6-6--6-6-----6--|
E|------------------7--------|---------------------7-----|


    E  E  S S E  S S E  S S E     E  E  E  E   E  E  E  E     W                 
G|-----------------------------|---------------------------|-------------------|
D|-----------------------------|---------------------------|-------------------|
A|--4--4--4-4-4--4-4-4--4-4-7--|--7-----7--7s--9-----9-----|-------------------|
E|-----------------------------|-----7------------9-----7--|--7----------------|


[Verse 2]

    H.           E  E     W                   H.           Q      
G|---------------------|-------------------|---------------------|
D|---------------------|-------------------|---------------------|
A|---------------------|-------------------|---------------9\----|
E|--L------------L-----|-------------------|---------------------|


    E  E  E  E  E  E  E  E     E  E  E  E  E  E  E  E   
G|--------------------------|--------------------------|
D|--------------------------|--------------------------|
A|--7--7--7--7--7--7--7--7--|--6--6--6--6--6--6--6--6--|
E|--------------------------|--------------------------|


    E  E  E  E  E  E  E  E     E  E  E  E  E  E  E  E   
G|--------------------------|--------------------------|
D|--------------------------|--------------------------|
A|--4--4--4--4--4--4--4-----|--------------------------|
E|-----------------------4--|--2--2--2--2--2--2--2--2--|


    E  E  E  E  E  E  E  E     E  E  E  E  E  E  E  E   
G|--------------------------|--------------------------|
D|--------------------------|--------------------------|
A|--2--2--2--2--2--2--2--2--|--2--2--2--2--2--2--2-----|
E|--------------------------|-----------------------2--|


    E  E  E  E  E  E  E  E     E  E  E  E  E  E  E  E   
G|--------------------------|--------------------------|
D|--------------------------|--------------------------|
A|--------------------------|--------------------------|
E|--4--4--4--4--4--4--4--4--|--4--4--4--4--4--4--2--2--|


    E  E  E  E  E  E  E  E     E  E  E  E  E  E  E  E   
G|--------------------------|--------------------------|
D|--------------------------|--------------------------|
A|--7--7--7--7--7--7--7--7--|--6--6--6--6--6--6--6--6--|
E|--------------------------|--------------------------|


    E  E  E  E  E  E  E  E     E  E  E  E  E  E  E  E     W                 
G|--------------------------|--------------------------|-------------------|
D|--------------------------|--------------------------|-------------------|
A|--4--4--4--4--4--4--4-----|--------------------------|--7----------------|
E|-----------------------4--|--2--2--2--2--2--2--2--2--|-------------------|


    H        E  E  Q       H        E  E  E  E     E  E  E  E  E  E  E  E   
G|----------------------|-----------------------|--------------------------|
D|----------------------|-----------------------|--------------------------|
A|--4--------L--6--7----|--6--------L--4--------|--------------------------|
E|----------------------|-----------------7--6--|--4--4--4--4--2--2--2--2--|


[Chorus 2]

    E  E  E  E  E  E  E  E     E  E  E  E  E  E  E  E   
G|--------------------------|--------------------------|
D|--------------------------|--------------------------|
A|-----------------------7--|--4--4--4--4--4--6--7--4--|
E|--0--0--0--0--0--0--7-----|--------------------------|


    E  E  E  E  E  E  E  E     E  E  E  E  E  E  E  E   
G|--------------------------|--------------------------|
D|--------------------------|--------------------------|
A|--6--6--6--6--6--4--------|--------------------------|
E|--------------------7--6--|--4--4--4--4--4--2--0--2--|


    E  E  E  E  E  E  E  E     E  E  E  E  E  E  E  E   
G|--------------------------|--------------------------|
D|-----------------------6--|--4--4--4-----------4-----|
A|--4--4--4--4--4-----4-----|-----------4--4--4--------|
E|-----------------4--------|-----------------------2--|


    E  E  E  E  E  E  E  E     E  E  E  E   E   E  E  E   
G|--------------------------|------------------11-----8--|
D|--------------------------|--------------/9------9-----|
A|--2--2--2--2--2--------2--|--2--2--2--2----------------|
E|-----------------2--4-----|----------------------------|


    E  E  E  E  E  E  E  E     E  E  E  E  E  E  E  E   
G|--------------------------|--------------------------|
D|--------------------------|--------------------------|
A|--7--7--7--7--7-----9--7--|--4--4--4--6--6--6--7--7--|
E|-----------------7--------|--------------------------|


    E  E  E  E  E  E  E  E     E  E  E  E  E  E  E  E   
G|--------------------------|--------------------------|
D|-----------------------8--|--6--6--------------------|
A|--6--6--6--6--6-----6-----|--------9--9--7--7--6--6--|
E|-----------------6--------|--------------------------|


    E  E  E  E  E  E  E  E     E  E    E  E  E  E  E  E   
G|--------------------------|-------------6--------------|
D|--------------------------|--------4g6-----------------|
A|--4--4--4--4--4--4--4--4--|--4--4-------------6-----6--|
E|--------------------------|----------------------------|


    E  E  E  E  E  E  E  E     E  E  E  E  E  E  Q      
G|--------------------------|--------------------------|
D|--------------------------|--------------------------|
A|--7--7--7--7--7-----7--9--|--9--9--9--9--9--9--9\----|
E|-----------------7--------|--------------------------|

[Bridge A]

    E  E  E  E  E  E  E  E     E  E  E  E  E  E  E  E   
G|--------------------------|--------------------------|
D|--------------------------|--------------------------|
A|--2--2--2--2--2--2--2--2--|--2--2--2--2--2-----4--6--|
E|--------------------------|-----------------2--------|


    E  E  E  E  E  E  E  E     E  E  E  E  E  E  E  E   
G|--------------------------|--------------------------|
D|--------------------------|--------------------------|
A|--6--6--6--6--6--6--6--6--|--6--6--6--6--6--7--9--7--|
E|--------------------------|--------------------------|


    E  E  E  E  E  E  E  E     E  E  E  E   E  E  E  E   
G|--------------------------|---------------------------|
D|--------------------------|---------------------------|
A|--------------------------|---------------------7-----|
E|--0--0--0--0--0--0--0--0--|--0--0--0--0s--7--7-----7--|


    E  E  E  E  E  E  E  E     E  E  E  E  E   E   E   E   
G|--------------------------|-----------------------------|
D|--------------------------|-------------------------11--|
A|--7--7--7--7--7--7--7-----|--9--9--9-----9--11--13------|
E|-----------------------7--|-----------9-----------------|

[Bridge B]

    E  E  E  E  E  E  E  E                                           
G|--------------------------|-------|-------|-------|-------|-------|
D|--9-----------------------|-------|-------|-------|-------|-------|
A|--------------------------|-------|-------|-------|-------|-------|
E|--------------------------|-------|-------|-------|-------|-------|


    Q    Q    Q.     E      E  E  E  E  E  E  E  E     E  E  E  E  E  E  E  E   
G|-----------------------|--------------------------|--------------------------|
D|-----------------------|-----6-----------6--------|--------------------------|
A|-----------------------|--------------------------|--7--x--x--6--x-----------|
E|-------------------0s--|--4-----4--2--4-----4--2--|-----------------2--x--4--|
                   Slap/pop bass part

    E  E  E  E   E  E  Q       E  E  E  E  E  E  E  E   
G|--------------------------|--------------------------|
D|------------------6-------|--------------------------|
A|--------------------------|--------------------------|
E|--x--------2s--4-----2----|--0-----x--2-----2-----4--|


    E  E  E   S   E  S  S   S Q        E  E  E  E  E  E  E  E   
G|-----------11s-13----11s-13-------|--------------------------|
D|----------------------------------|--------------------------|
A|----------------------------9\----|--6--x--x--6--x-----------|
E|----------------------------------|-----------------2--x--4--|


    E  E  E  E  E  E  Q       E  E  E  E  E  E  E  E     E  E  E  E  E  E  E  E   
G|-------------------------|--------------------------|--------------------------|
D|-----------------6-------|--------------------------|--------------------------|
A|-------------------------|--------------------------|--------------------------|
E|--x--------2--4-----2----|--3--3--3--3--3--3--3--3--|--5--5--5--5--5--5--5--5--|

[Chorus 3]
                    E  E  E  E  E  E  E  E     E  E  E  E  H         
G|-------|-------|--------------------------|-----------------------|
D|-------|-------|--------------------------|-----------------------|
A|-------|-------|--6--6--6--6--6--4--------|-----------------------|
E|-------|-------|--------------------7--6--|--4--4--4--4-----------|


    E  E  E  E  E  E  E  E     E  E  E  E  E  E  E  E   
G|--------------------------|--------------------------|
D|-----------------------6--|--4--4--4-----------------|
A|--4--4--4--4--4-----4-----|-----------4--4--4--------|
E|-----------------4--------|--------------------2--2--|


    E  E  E  E  E  E  E  E     E  E  E  E   E   E  E  E   
G|--------------------------|------------------11-----8--|
D|--------------------------|--------------/9------9-----|
A|--2--2--2--2--2--------2--|--2--2--2--2----------------|
E|-----------------2--4-----|----------------------------|


    E  E  E  E  E  E  E  E     E  E  E  E  E  E    E  E   
G|--------------------------|--------------------6g8--8--|
D|--------------------------|--------------6--6----------|
A|--7--7--7--7--7-----9--7--|--4--4--4--4----------------|
E|-----------------7--------|----------------------------|


    E  E  E  E  E  E  E  E     E  E  E  E  E  E  E  E   
G|--8--8--8--8--------------|--------------------------|
D|--------------------8-----|--6--6--------------------|
A|--------------9--9-----9--|--------9--9--7--7--6--6--|
E|--------------------------|--------------------------|


    E  E  E  E  E  E  E  E     E  E    E  E  E  E  E  E   
G|--------------------------|-------------6--------------|
D|--------------------------|--------4g6-----------------|
A|--4--4--4--4--4--4--4--4--|--4--4-------------6-----6--|
E|--------------------------|----------------------------|


    E  E  E  E  E  E  E  E     E  E  E  E  E  E  E  E   
G|--------------------------|--------------------------|
D|--------------------------|--------------------------|
A|--7--7--7--7--7-----7--9--|--9--9--9--9--9--7--6-----|
E|-----------------7--------|-----------------------9--|


    E  E  E  E  E  E  E  E       E   E   E   E  E  E  E  E   
G|--------------------------|-------------------------------|
D|--------------------------|--/11------13--11--------------|
A|--4--4--4--4--4--4--4--4--|-------11-------------6-----6--|
E|--------------------------|-------------------------------|


    E  E  E  E  E  E  E  E     E  E  E  Q    Q.              
G|--------------------------|-----------------------|-------|
D|--------------------------|-----------------------|-------|
A|--7--7--7--7--7-----7--9--|--9--9--9--------------|-------|
E|-----------------7--------|-----------------------|-------|

[Intro/Outro]

    E  E  E  S E  S E  E  S S    E  E  E  S E  S E  E  S S  
G|----------------------------|----------------------------|
D|----------------------------|----------------------------|
A|--2--2--2--2-2--2-2--2--2-2-|--2--2--2--2-2--2-2--2--2-2-|
E|----------------------------|----------------------------|


    E  E  E  S E  S E  E  S S      E   E   E   S  S  E  E  E  E   
G|----------------------------|----------------------------------|
D|----------------------------|----------------------------------|
A|----------------------------|--/11--11--11--11-11-11--9--7--6--|
E|--4--4--4--4-4--4-4--4--4-4-|----------------------------------|


    E  E  E  S E  S E  E  E     E  E  E  S E  S E  E  E   
G|---------------------------|---------------------------|
D|---------------------------|---------------------------|
A|--7--7--7--7-7--7----9--7--|--6--6--6--6-6--6-6-----6--|
E|------------------7--------|---------------------7-----|


    E  E  S S E  S S E  S S E     E  E  E  E  E  E  E  E   
G|-----------------------------|--------------------------|
D|-----------------------------|--------------------------|
A|--4--4--4-4-4--4-4-4--4-4-7--|--7-----7--7--9--9--9--9--|
E|-----------------------------|-----7--------------------|


    E  E  E  E  E  E  E  E     E  E  E  E  E  E  E  E     W                  
G|--------------------------|--------------------------|-------------------||
D|--------------------------|--------------------------|-------------------||
A|--7--7--7--6--6--6--4--4--|--4-----------------------|--2----------------||
E|--------------------------|-----2--2--2--2--2--2--2--|-------------------||




Duration Legend
---------------
W - whole
H - half
Q - quarter
E - 8th
S - 16th
. - note dotted


Tablature Legend
----------------
L - tied note
x - dead note
g - grace note
h - hammer on
p - pull off
s - legato slide
/ -  slide into from below or out of upwards
\ -  slide into from above or out of downwards
Suggest correction
Give kudos to tab author, rate the tab!
1 2 3 4 5
comments
print report bad tab
guest
You may want to rate the tab now too:
select rating
Wanna post a correction for this tab? Suggest correction