Oops, an error
Loading. Please wait.

Hitohira No Hanabira Bass Tab

version 3
version 3

Whole song

Interactive

28 views 3 this week
no commentswrite comment
1 2 3 4 5
2 more votes to show rating
add to favorites
launch autoscroll
font size
0
reset
guitar tuner
Autoscroll
slow
fast
+/-
esc
set tempo
stop
Help us to improve Ultimate-Guitar.com Take our survey!
×
Author
Difficulty
novice
Intro
G|-----------------------15----15-15-15-15-15-15-15-15-15-15-15-15-15-15-15-15-15-15----------|
D|-----13-13-13-13-13-13-13-13-13-13-13-13-13-13-13-13-13-13-13-13-13-13-13-13-13-13----------|
A|-----------------------------------------------------------------------------------6-/-13-\-|
E|--------------------------------------------------------------------------------------------|
   1 + 2  +  3  +  4  +  1  +  2  +  3  +  4  +  1  +  2  +  3  +  4  +  1  +  2  +  3 + 4 +

Chorus
G|-------8---8-----------------------------------------11---11---11-----|
D|-------------------9---9---9---9-------11---11------------------------|
A|-6---6---6---6-------------------------------------9----9----9----9---| 
E|-----------------7---7---7---7---9---9----9----9----------------------| 
   1 + 2 + 3 + 4 + 1 + 2 + 3 + 4 + 1 + 2 +  3 +  4 + 1 +  2 +  3 +  4 +

G|---8---8---8------------------------------------------11-------10-----|
D|-------------------9---9---9---9-------11---11---11-------------------|
A|-6---6---6---6--------------------------------------9----9---8----8---| 
E|-----------------7---7---7---7---9---9----9----9----------------------|
   1 + 2 + 3 + 4 + 1 + 2 + 3 + 4 + 1 + 2 +  3 +  4 +  1 +  2 + 3 +  4 +

Interlude
G|---8---8---8---8---8---8---8-------8---8---8---8------------------|
D|------------------------------------------------------------------|
A|-6---6---6---6---6---6---6---6---6---6---6---6--------------------| 
E|-------------------------------------------------4-4-4-4-6-6-6-6--|
   1 + 2 + 3 + 4 + 1 + 2 + 3 + 4 + 1 + 2 + 3 + 4 + 1 + 2 + 3 + 4 +

G|---8---8---8---8---8---8-----------------------------------------|
D|-----------------------------------------------------------------|
A|-6---6---6---6---6---6---6-6/13\---------------------------------| 
E|---------------------------------4---4-4-4-4-4-4-6\--------------|
   1 + 2 + 3 + 4 + 1 + 2 + 3 + 4 + 1 + 2 + 3 + 4 + 1 + 2 + 3 + 4 +

Verse
G|-----------------------------------------------------------------|
D|-------------------------4-----------------------------4-6-4-----|
A|-6---4-6---6-4-6---6-4-6---6-4-6-4---2-4---4-2-4---4-6-------6-4-| 
E|-----------------------------------------------------------------|
   1 + 2 + 3 + 4 + 1 + 2 + 3 + 4 + 1 + 2 + 3 + 4 + 1 + 2 + 3 + 4 +

G|-----------------------------------------------------------------|
D|-------------------------4-----------------------------4-6-4-----|
A|-6-6-4-6---6-4-6---6-4-6---6-4-6-4-4-2-4---4-2-4---4-6-------6-4-| 
E|-----------------------------------------------------------------|
   1 + 2 + 3 + 4 + 1 + 2 + 3 + 4 + 1 + 2 + 3 + 4 + 1 + 2 + 3 + 4 +

G|-----------------------------------------------------------------|
D|-----------------------------------------------------------------|
A|-------------------------------------------------------4/9-9-----| 
E|-4---4-4-4-4-4-4-2-2-2-2-2-2-2-2-4-4-4-4-4-4-4-4-2-2-2-------9-\-|   
   1 + 2 + 3 + 4 + 1 + 2 + 3 + 4 + 1 + 2 + 3 + 4 + 1 + 2 + 3 + 4 +

G|-----------------------------------------------------------------|
D|-----------------------------------------------------------------|
A|---------------------------------2---2-2-2-2-2-2-2-2-2-2-2-2-2---| 
E|-4---4-4-4-4-4-4-2-2-2-2-2-2-2-----------------------------------| 
   1 + 2 + 3 + 4 + 1 + 2 + 3 + 4 + 1 + 2 + 3 + 4 + 1 + 2 + 3 + 4 +

G|------------------------------13-----|
D|---------------------11---11------11-|
A|-4--4--4/11\4--4-4-------------------|
E|-------------------------------------| 
   Triplet Triplet 1 + 2  + Tri pl et

Chorus
G|-------8---8---8-------------------------------------11---11---11-----|
D|-------------------9---9---9---9-------11---11------------------------|
A|-6---6---6---6-------------------------------------9----9----9----9---| 
E|-----------------7---7---7---7---9---9----9----9----------------------| 
   1 + 2 + 3 + 4 + 1 + 2 + 3 + 4 + 1 + 2 +  3 +  4 + 1 +  2 +  3 +  4 +

G|---8---8---8---8---------------------------------------11---11---10---10-|
D|-------------------9---9---9---9---11---11---11---11---------------------|
A|-6---6---6---6---------------------------------------9----9----8----8----| 
E|-----------------7---7---7---7---9----9----9----9------------------------|
   1 + 2 + 3 + 4 + 1 + 2 + 3 + 4 + 1 +  2 +  3 +  4 +  1 +  2 +  3 +  4 +

G|---8---8---8---8------------------------------------------11---11-----|
D|-------------------9---9---9---9---11---11---11-----------------------|
A|-6---6---6---6--------------------------------------9---9----9----9---| 
E|-----------------7---7---7---7---9----9----9----9---------------------| 
   1 + 2 + 3 + 4 + 1 + 2 + 3 + 4 + 1 +  2 +  3 +  4 + 1 + 2 +  3 +  4 +

G|-------8---8---------------------------------------------11---10-----|
D|-------------------9---9---9---9-------11---11-----------------------|
A|-6---6---6---6-------------------------------------9---9----8---/13\-| 
E|-----------------7---7---7---7---9---9----9----9---------------------|
   1 + 2 + 3 + 4 + 1 + 2 + 3 + 4 + 1 + 2 +  3 +  4 + 1 + 2 +  3 +  4 +

Interlude
G|---8---8---8---8---8---8-----------------------------------------|
D|-----------------------------------------------------------------|
A|-6---6---6---6---6---6---6-6/13\---------------------------------| 
E|---------------------------------4---4-4-4-4-4-4-6\--------------|
   1 + 2 + 3 + 4 + 1 + 2 + 3 + 4 + 1 + 2 + 3 + 4 + 1 + 2 + 3 + 4 +

Verse
G|-----------------------------------------------------------------|
D|-------------------------4-----------------------------4-6-4-----|
A|-6-6-4-6---6-4-6---6-4-6---6-4-6-4---2-4---4-2-4---4-6-------6-4-| 
E|-----------------------------------------------------------------|
   1 + 2 + 3 + 4 + 1 + 2 + 3 + 4 + 1 + 2 + 3 + 4 + 1 + 2 + 3 + 4 +

G|-----------------------------------------------------------------|
D|-------------------------4-----------------------------4-6-4-----|
A|-6-6-4-6---6-4-6---6-4-6---6-4-6-4---2-4---4-2-4---4-6-------6-4-| 
E|-----------------------------------------------------------------|
   1 + 2 + 3 + 4 + 1 + 2 + 3 + 4 + 1 + 2 + 3 + 4 + 1 + 2 + 3 + 4 +

G|-----------------------------------------------------------------|
D|-----------------------------------------------------------------|
A|-------------------------------------------------------4/9-9-----| 
E|-4---4-4-4-4-4-4-2-2-2-2-2-2-2-2-4-4-4-4-4-4-4-4-2-2-2-------9-\-|   
   1 + 2 + 3 + 4 + 1 + 2 + 3 + 4 + 1 + 2 + 3 + 4 + 1 + 2 + 3 + 4 +

G|-----------------------------------------------------------------|
D|-----------------------------------------------------------------|
A|---------------------------------2---2-2-2-2-2-2-2-2-2-2-2-2-2---| 
E|-4-4-4-4-4-4-4-4-2-2-2-2-2-2-2-----------------------------------| 
   1 + 2 + 3 + 4 + 1 + 2 + 3 + 4 + 1 + 2 + 3 + 4 + 1 + 2 + 3 + 4 +

G|---------------------------------|
D|---------------------------------|
A|-4---4-4-4-4-4-4-4-----------9-\-|
E|---------------------------------|
   1 + 2 + 3 + 4 + 1 + 2 + 3 + 4 + 

Chorus
G|---8---8---8-----------------------------------------11---11---11-----|
D|-------------------9---9---9---9-------11---11------------------------|
A|-6---6---6---6-------------------------------------9----9----9----9-9-| 
E|-----------------7---7---7---7---9---9----9----9----------------------| 
   1 + 2 + 3 + 4 + 1 + 2 + 3 + 4 + 1 + 2 +  3 +  4 + 1 +  2 +  3 +  4 +

G|---8---8---8-----------------------------------------------11---10-----|
D|-------------------9---9---9---9---11---11---11---11-------------------|
A|-6---6---6---6---------------------------------------9---9----8---/13\-| 
E|-----------------7---7---7---7---9----9----9----9----------------------|
   1 + 2 + 3 + 4 + 1 + 2 + 3 + 4 + 1 +  2 +  3 +  4 +  1 + 2 +  3 +  4 +

Instrumental
G|------------------6------------------------------------------------|
D|o-------4-6-4-6-8---8-6-4-6-4---------4---4-----------4---4-------o|
A|o-6-4-6-----------------------6-4-6-4---------6-4-6-4---------6-4-o| 
E|-------------------------------------------------------------------|
    1 + 2 + 3 + 4 + 1 + 2 + 3 + 4 + 1 + 2 + 3 + 4 + 1 + 2 + 3 + 4 +

Bridge
G|----------------------------------------------------6---h8---6-----|
D|---------------------------------------4---4-6---h8------------8-6-| h8= 6h8 grace note
A|-2-----2-r-------4-----4-r-------6---6-----------------------------| 
E|-------------------------------------------------------------------|
   1 + 2 + 3 + 4 + 1 + 2 + 3 + 4 + 1 + 2 + 3 + 4 + 1  + 2 +  3 + 4 +

G|-------------------------------------------------------------------|-Listen-for-timing--|
D|---------------------------4/9-------------------------------------|--------------------|
A|-2---2-2-2---2---2---2---2-----9----------/11-11-------------------|-13-13-13-----13-13-| 
E|---------------------------------4---4---4-------6---6-6-6-6-/-13--|--------------------|
   1 + 2 + 3 + 4 + 1 + 2 + 3 + 4 + 1 + 2 + 3 +  4  + 1 + 2 + 3 + 4 +   Triplet  2 e +  a

Chorus
G|-------8---8---8-------------------------------------11---11---11-----|
D|-------------------9---9---9---9-------11---11------------------------|
A|-6---6---6---6-------------------------------------9----9----9----9---| 
E|-----------------7---7---7---7---9---9----9----9----------------------| 
   1 + 2 + 3 + 4 + 1 + 2 + 3 + 4 + 1 + 2 +  3 +  4 + 1 +  2 +  3 +  4 +

G|---8---8---8---8---------------------------------------11---11---10---10-|
D|-------------------9---9---9---9---11---11---11---11---------------------|
A|-6---6---6---6---------------------------------------9----9----8----8----| 
E|-----------------7---7---7---7---9----9----9----9------------------------|
   1 + 2 + 3 + 4 + 1 + 2 + 3 + 4 + 1 +  2 +  3 +  4 +  1 +  2 +  3 +  4 +

G|---8---8---8---8--------------------------------------11---11---11---11-|
D|-------------------9---9---9---9---11---11---11-------------------------|
A|-6---6---6---6--------------------------------------9----9----9----9----| 
E|-----------------7---7---7---7---9----9----9----9-----------------------| 
   1 + 2 + 3 + 4 + 1 + 2 + 3 + 4 + 1 +  2 +  3 +  4 + 1 +  2 +  3 +  4 +

G|---8---8---8---8-----------------------------------------11---10-----|
D|-------------------9---9---9---9-------11---11-----------------------|
A|-6---6---6---6-------------------------------------9---9----8---/13\-| 
E|-----------------7---7---7---7---9---9----9----9---------------------|
   1 + 2 + 3 + 4 + 1 + 2 + 3 + 4 + 1 + 2 +  3 +  4 + 1 + 2 +  3 +  4 +

Outro
G|---8---8---8---8---8---8-----------------------------------------|
D|-----------------------------------------------------------------|
A|-6---6---6---6---6---6---6-6/13\-6-6--/13---4---6----------------| 
E|-----------------------------------------------------------------|
   1 + 2 + 3 + 4 + 1 + 2 + 3 + 4 + 1 + 2 + 3 + 4 + 1 + 2 + 3 + 4 +

Suggest correction
Give kudos to tab author, rate the tab!
1 2 3 4 5
comments
print report bad tab
guest
You may want to rate the tab now too:
select rating
Wanna post a correction for this tab? Suggest correction