Oops, an error
Loading. Please wait.

Smilife bass

version 1
version 1

Whole song

Interactive

2,261 views 1 this week
no commentswrite comment
1 2 3 4 5
x 3
add to favorites
×
Save as Personal and add changes to this tab that will be seen only by you. Learn more ›
×
You can save this tab as Personal to edit and correct it or add notes. All changes will be seen only by you. Learn more »
launch autoscroll
font size
0
reset
guitar tuner
edit
Autoscroll
slow
fast
+/-
esc
set tempo
stop
Author
Difficulty
Song: Smilife
Band: Stereopony

basstab by Gustavo02
emaildogustavo02@hotmail.com



/ slide up
\ slide down 

*each |----| = 8 beats, which some exceptions on the bridges.

INTRO:

      G|--------------------------------|  |--------------------------------|
      D|--------------------------------|  |--------------------------------|
      A|7-7-7-7-7-7-7-7-7-7-7-7-7-7-7-7-|  |--------------------------------|
 15\  E|--------------------------------|  |7-7-7-7-7-7-7-7-7-7-7-7-7-7-7-7-|


G|--------------------------------|  |--------------------------------|
D|--------------------------------|  |--------------------------------|
A|4-4-4-4-4-4-4-4-4-4-4-4-4-4-4-4-|  |------------------/12-12--12-12-|
E|--------------------------------|  |5-5-5-5-5-5-5-5-5---------------|


VERSES 1:

G|--------------------------------|  |--------------------------------|
D|--------------------------------|  |--------------------------------|
A|7-7-7-7-7-7-7-7-7-7-7-7-7-7-7-7-|  |--------------------------------|
E|--------------------------------|  |7-7-7-7-7-7-7-7-7-7-7-7-7-7-7-7-|

G|--------------------------------|  |--------------------------------|
D|--------------------------------|  |--------------------------------|
A|4-4-4-4-4-4-4-4-4-4-4-4-4-4-4-4-|  |--------------------------------|
E|--------------------------------|  |5-5-5-5-5-5-5-5-5---0-5---0-5---|



G|--------------------------------|  |--------------------------------|
D|--------------------------------|  |--------------------------------|
A|7-7-7-7-7-7-7-7-7-7-7-7-7-7-7-7-|  |--------------------------------|
E|--------------------------------|  |7-7-7-7-7-7-7-7-7-7-7-7-7-7-7-7-|

G|--------------------------------|  |--------------------------------|
D|--------------------------------|  |--------------------------------|
A|4-4-4-4-4-4-4-4-4-4-4-4-4-4-4-4-|  |--------------------------------|
E|--------------------------------|  |5-5-5-5-5-5-5-5-5-5-5-5-5-5-5-5-|


VERSES 2A:
(wo matte miru, sonna toki demo...)

G|--------------------------------|  |--------------------------------|
D|--------------------------------|  |--------------------------------|
A|/12-------------7------6----7---|  |--------------------------------|
E|--------------------------------|  |7----------------------/9---7---|

G|--------------------------------|  |---------------------9-9-9------|
D|--------------------------------|  |--------------------------------|
A|----------------5---5-5-5-5-5-5-|  |7-7-7-7-7-7-7-7---7-------------|
E|5----5-5--5---------------------|  |--------------------------------|

CHORUS 1:
(Tonight bokura wa...)

G|--------------------------------|  |--------------------------------|
D|--------------------------------|  |--------------------------------|
A|7-7-7---7-7-7-------------------|  |--------------------------------|
E|----------------7-7-7---7-7-7---|  |5-5-5---5-5-5---5-5-5---5-5-5---|

G|--------------------------------|  |--------------------------------|
D|--------------------------------|  |--------------------------------|
A|7-7-7---7-7-7-------------------|  |------------------5-5-5-5-4-5-5-|
E|----------------7-7-7---7-7-7---|  |5-5-5---5-5-5-------------------|


CHORUS 2:
(-chi nori wa nagaku tooku....)

G|--------------------------------|  |--------------------------------|
D|--------------------------------|  |--------------------------------|
A|7-7-7-7-7-7-7-7-7-7-7-7-7-7-7-7-|  |--------------------------------|
E|--------------------------------|  |7-7-7-7-7-7-7-7-7-7-7-7-7-7-7-7-|

G|--------------------------------|  |--------------------------------|
D|--------------------------------|  |--------------------------------|
A|4-4-4-4-4-4-4-4-4-4-4-4-4-4-4-4-|  |----------------------------4-5-|
E|--------------------------------|  |5-5-5-5-5-5-5-5-5---5---5-------|



CONNECTION TO VERSE 1 (I love to made up these names)

G|--------------------------------|  |---------------------------------|
D|--------------------------------|  |----------------------/14--14-14-|
A|7---7---7---7---7---7---7---7---|  |7---7---7---7---7---7------------|
E|--------------------------------|  |---------------------------------|

{drums stops}                        {drums come back}
G|--------------------------------|  |--------------------------------|
D|----------------------------9---|  |--------------------------------|
A|-----------------------/7-------|  |--------------------------------|
E|12--\---------------------------|  |7-7-7-7-7-7-7-7-7-7-7-7-7-7-7-7-|

G|--------------------------------|  |--------------------------------|
D|--------------------------------|  |--------------------------------|
A|4-4-4-4-4-4-4-4-4-4-4-4-4-4-4-4-|  |--------------------------------|
E|--------------------------------|  |5-5-5-5-5-5-5-5-5-5-5-5-5-5-4-6-|

G|--------------------------------|  |--------------------------------|
D|--------------------------------|  |--------------------------------|
A|7-7-7-7-7-7-7-7-7-7-7-7-7-7-7-7-|  |--------------------------------|
E|--------------------------------|  |7-7-7-7-7-7-7-7-7-7-7-7-7-7-7-7-|

G|--------------------------------|  |--------------------------------|
D|--------------------------------|  |--------------------------------|
A|4-4-4-4-4-4-4-4-4-4-4-4-4-4-4-4-|  |--------------------------------|
E|--------------------------------|  |5-5-5-5-5-5-5-5-5-5-5-5-5-5-5-5-|


VERSES 2B
(Mou sukoshi, Choujou wa chikai...)

G|--------------------------------|  |--------------------------------|
D|--------------------------------|  |---------------9----------------|
A|/12----11---12---7-----/9---7---|  |-------------9----------9-------|
E|--------------------------------|  |7--------7-7----------------7---|

G|--------------------------------|  |--------------------------------|
D|--------------------------------|  |-------------------------9--9---|
A|----------------5---5-5-5-5-5-5-|  |7-7-7-7-7-7-7-7---5---5---------|
E|5----5-5--5---------------------|  |----------------7---7-----------|


-> [CHORUS 1] again

CHORUS 2: (the same as before, but with a slide in the end)

G|--------------------------------|  |--------------------------------|
D|--------------------------------|  |--------------------------------|
A|7-7-7-7-7-7-7-7-7-7-7-7-7-7-7-7-|  |--------------------------------|
E|--------------------------------|  |7-7-7-7-7-7-7-7-7-7-7-7-7-7-7-7-|

G|--------------------------------|  |--------------------------------|
D|--------------------------------|  |--------------------------------|
A|4-4-4-4-4-4-4-4-4-4-4-4-4-4-4-4-|  |----------------/12-----11------|
E|--------------------------------|  |5-5-5-5-5-5-5-5-----------------|


DRAMATIC PART:

G|---------------------------------|  |---------------------------------|
D|---------------------------------|  |---------------------------------|
A|---------------------------------|  |------------------5-5-5-5--5-----|
E|9-----7-----5-----2-2-2-2--4-----|  |9-----7-----5--------------------|



NO DRUMS PART:
(Aru toki uta ga deki...)

G|--------------------------------|  |--------------------------------|
D|--------------------------------|  |--------------------------------|
A|--------------------------------|  |--------------------------------|
E|5---------------7---------------|  |9--------------9/12-------------|

G|--------------------------------|  |--------------------------------|
D|--------------------------------|  |--------------------------------|
A|--------------------------------|  |--------------------------------|
E|5---------------7---------------|  |9--------------9/12-------------|

(drums rising)
G|--------------------------------|  |------------------------------------|
D|--------------------------------|  |------------------------------------|
A|--------------------------------|  |------------------------------------|
E|5---5---5---5---7---7---7---7---|  |9---9---9---9---12---12---12---12---|


EXPLOSION PART: =]
(Shita bakka muite iketaba bokura wa...)

G|--------------------------------|  |--------------------------------|
D|--------------------------------|  |--------------------------------|
A|3-3-3-3-3-3-3-3-5-5-5-5-5-5-5-5-|  |7-7-7-7-7-7-7-7-7-7-7-7-7-7-7-7-|
E|--------------------------------|  |--------------------------------|

G|---------------------------------|  |--------------------------------|
D|-----------------------/12-12-12-|  |--------------------------------|
A|3-3-3-3-3-3-3-3-5-5-5-5----------|  |--------------------------------|
E|---------------------------------|  |12-12-12------------------------|

G|--------------------------------|  
D|----------------/7--------------|  
A|--------------------------------|  
E|5-------------------------------|  


 --> [CHORUS 1] (just the second half of it)

 --> [CHORUS 2] 

 --> [CHORUS 1] 

 --> [CHORUS 2] 


ENDING:

G|--------------------------------|  |--------------------------------|
D|--------------------------------|  |--------------------------------|
A|5-4-5---4-5---4-5---4-----------|  |5-4-5---4-5---4-5-------7-------|
E|----------------------5---------|  |--------------------------------|

            
            
Suggest correction
Creating personal tab
Creating personal tab
You can edit any tab online and save it as your Personal.

You can edit, replace or remove any tab part or add personal notes – all changes will be seen only by you.

Personal tabs can be accessed anytime from any device, even offline.
Learn more »
Give kudos to tab author, rate the tab!
1 2 3 4 5
comments
print report bad tab
guest
You may want to rate the tab now too:
select rating
Wanna post a correction for this tab? Suggest correction