Oops, an error
Loading. Please wait.

Get Up Tab

759 views 1 this week
4 commentsread comments
1 2 3 4 5
accurate
x 2
add to favorites
launch autoscroll
font size
0
reset
how to read this tab
guitar tuner
Tab Pro tools
  • play this tab
  • loop segment
  • change instrument
  • show fretboard
  • metronome
Autoscroll
slow
fast
+/-
esc
set tempo
stop
Difficulty
novice
Artist: Steriogram
Song: Get Up

Wicked-as song off the new album, this is my first shot at tabbing and I’m only 14 so
me a break if I screw up.


Drop D Tuning


Intro/Verse

|  -------------------------------------------------------------------- |
|  -------------------------------------------------------------------- |
|  -------------------------------------------------------------------- |
|  -------------------------------------------------------------------- |
|  -------------------------------------------------------------------- |
|  ----0-0-0-0-0-0-0-0-10-h12-0-0-13-0-0-11-0-0-9-00-7-00-5-00-3-3-3-0- |

Chorus (‘Can you feel me…’)

|  ----------------------------- |
|  ----------------------------- |
|  ----------------------------- |
|  ---6--------h8-8------4------ |
|   --6 (x12)-h8-8------4 (x13)  |
|  ---6--------h8-8------4------ |

 Break-(under bass/vocals)

|  ---------------------------------------------------------- |
|  ---------------------------------------------------------- |
|  -5------------/7--------------- }------------------------- |
|  -5 (x15?) ---/7  (x15?)------}x2-------------7-----5------ |
|  -3------------/5----------------}----------------7---- 5-- |
|  --------------------------------------------------7-----5- |

Format:

Drum Intro
Intro x2
Verse x2
Chorus x1
Verse x4
Chorus x1
Verse x4
Bass/Vocal Break x1
Verse x4
END

I’m not positive about the guitar part in the break because ma stereo is crap and the
is too quite.
Neways, I hope the tab is decent, please rate it and if you like Kiwi Rock and Roll or
got some suggestions then email me on jamesdonaldson@hot-shot.com

cheers
comments
We did not receive enough feedback on this tab! Please rate:
print report bad tab
1 2 3 4 5
4 comments total. Showing first comments.
0 reply
rocker007 wrote on January 8 2008, 08:00 am

Think you got the tuning wrong. This isn't in Drop D

0 reply
Stevie B wrote on June 25 2008, 10:24 am

Tuning is Drop Db

also first riff goes like this
Db|-0--0-0-0-0-0-0-10-12-0-0-0-10-12-0-0-13-0-0-12-0-0-10-0-0-5-0-0-3-3-3-0-|

and for chorus I think it goes
Db|-8-------3-------|
Ab|-8 (x16)-3 (x16)-|
Db|-8-------3-------|

Of course that's just my opinion but I hope you take a look :D

0 reply
Stevie B wrote on June 25 2008, 10:32 am

also bridge is
Gb|-7-------5-------------|
Db|-7 (x16)-5 (x8)-5------|
Ab|-5-------3------5 (x8)-|
Db|----------------5------|

I think....

I want to post or [tab]
guest
You may want to rate the tab now too:
select rating
Please do not post tabs as comments. Select "correction" instead!