Oops, an error
Loading. Please wait.

On And On bass

version 1
version 1

Whole song

Interactive

310 views 1 this week
no commentswrite comment
1 2 3 4 5
3 more votes to show rating
add to favorites
×
Save as Personal and add changes to this tab that will be seen only by you. Learn more ›
×
You can save this tab as Personal to edit and correct it or add notes. All changes will be seen only by you. Learn more »
launch autoscroll
font size
0
reset
guitar tuner
edit
Autoscroll
slow
fast
+/-
esc
set tempo
stop
tabber:Tim Carter a.k.a DRUMMERBASSIST
Bassist:Jake Adams...or Jake wrennal...dunno...anyway-DONT FORGET IT! HE RULES ALL!
Band:steriogram-BUY THE CD! THEY RULE
song:on and on
Album:Schmack!

good morning evry1 hu lyks steriogram! if u dont, o well ur missing out on sum awesum
kiwi music. this song duznt sound the best without the rest of the instruments so look
for the CD and buy it and learn it. do NOT be a retard and copy the CD! and by the way
this tab shud be rite as ive seen jake play it before showing me and sum m8s a good way
of writing songs....andyway im rambling on and on and stuff so yeah here it is...enjoy

this is my first tab so the timing mite be not so good. the timing is hard to put right.
im doing my best

standard tuning (E,A,D,G)

Intro- bass comes in at 00:07

|-------|
|-------|
|--5~---|
|-------|

0:08  (the ones in there are ones-not elevens)
|------------------------------------------------------------------------|
|------------------------------------------------------------------------|
|-0~--1~--1-1--111-0~-0-2~-2-222-0-0-1~-1-1-113-3-3-3--------------------|
|------------------------------------------------------------------------|
Verse 00:13 play through twice
|------------------------------------------------------------------------|
|------------------------------------------------------------------------|
|-5~-5--555-0-0-1~-1-1--111-0~--0-2~-2-222-0-0-1~-1-1-113-3-3-3----------|
|------------------------------------------------------------------------|
Chorus 00:27
|-----------------------------------------------------------------|
|---------------------------------0-0-0-0-0-0-0-0-0-0-0-0-0-0-0-0-|
|-1-1-1-1-1-1-1-1-1-1-1-1-1-1-1-1---------------------------------|
|-----------------------------------------------------------------|

|-----------------------------------------------------------------|
|-----------------------------------------------------------------|
|3-3-3-3-3-3-3-3-3-3-3-3-3-3-3-3-0-0-0-0-0-0-0-0-0-0-0-0-0-0-0-0--|
|-----------------------------------------------------------------|

|-----------------------------------------------------------------|
|---------------------------------0-0-0-0-0-0-0-0-0-0-0-0-0-0-0-0-|
|-1-1-1-1-1-1-1-1-1-1-1-1-1-1-1-1---------------------------------|
|-----------------------------------------------------------------|

|-------------------------------------------------------------------|
|-------------------------------------------------------------------|
|3-3-3-3-3-3-3-3-3-3-3-3-3-3-3-3-0-0-0-0-0-0-0-0-1-1-1-1-1-1-1-1-5~-|
|-------------------------------------------------------------------|

(repeat verse for the fill at 00:57)

second verse-01:07 play through 4 times
|------------------------------------------------------------------------|
|------------------------------------------------------------------------|
|-5~-5--555-0-0-1~-1-1--111-0~--0-2~-2-222-0-0-1~-1-1-113-3-3-3----------|
|------------------------------------------------------------------------|

Chorus-01:35
|-----------------------------------------------------------------|
|---------------------------------0-0-0-0-0-0-0-0-0-0-0-0-0-0-0-0-|
|-1-1-1-1-1-1-1-1-1-1-1-1-1-1-1-1---------------------------------|
|-----------------------------------------------------------------|

|-----------------------------------------------------------------|
|-----------------------------------------------------------------|
|3-3-3-3-3-3-3-3-3-3-3-3-3-3-3-3-0-0-0-0-0-0-0-0-0-0-0-0-0-0-0-0--|
|-----------------------------------------------------------------|

|-----------------------------------------------------------------|
|---------------------------------0-0-0-0-0-0-0-0-0-0-0-0-0-0-0-0-|
|-1-1-1-1-1-1-1-1-1-1-1-1-1-1-1-1---------------------------------|
|-----------------------------------------------------------------|

|--------------------------------|
|--------------------------------|
|3-3-3-3-3-3-3-3-3-3-3-3-3-3-3-3-|
|--------------------------------|

Bridge 1-01:58-no bass-

repeat verse 1-02:25 play through only once then straight to chorus at 02:33
let last note from chorus ring-theres the second bridge at 03:00 no bass
then at 03:16 come in with the verse bassline. from there it keeps going until
3:40 when u let the note ring and then brad has his little acoustic and singing
outro. this is a great song so rate this tab! and btw it is 100%correct...pretty
sure...woo not bad for a first tab...
Suggest correction
Creating personal tab
Creating personal tab
You can edit any tab online and save it as your Personal.

You can edit, replace or remove any tab part or add personal notes – all changes will be seen only by you.

Personal tabs can be accessed anytime from any device, even offline.
Learn more »
Give kudos to tab author, rate the tab!
1 2 3 4 5
comments
print report bad tab
guest
You may want to rate the tab now too:
select rating
Wanna post a correction for this tab? Suggest correction