Oops, an error
Loading. Please wait.

Tsunami Tab

version 2
version 2

Whole song

2,525 views 1 this week
no commentswrite comment
1 2 3 4 5
please rate
add to favorites
launch autoscroll
font size
0
reset
how to read this tab
guitar tuner
Autoscroll
slow
fast
+/-
esc
set tempo
stop
Help us to improve Ultimate-Guitar.com Take our survey!
×
Contributor
-----------------------------------------------------------------------------

			Steriogram - Tsunami Guitar Tab

-----------------------------------------------------------------------------


             -----------------------------------
		Tuning: Standered E A D G B E
             -----------------------------------
Intro:

e |--------------------------------------------------------------------------|
B |--------------------------------------------------------------------------|
G |--------------------------------------------------------------------------|
D |--------------------------------------------------------------------------|
A |--0--4-2--0-2-4--0-2-4-2-0-2-3---0-2-3--5-2--0-2-4-2-4-2-0----------------|
E |--------------------------------------------------------------------------|

Verse 1: Repeat Intro Twice

Chorus

e |--------------------------------------------------------------------------|
B |--------------------------------------------------------------------------|
G |--------------------------------------------------------------------------|
D |--7-7-7-7/6-6-6-6---9-9-9-9/4-4-4-4---------------------------------------|
A |--7-7-7-7/6-6-6-6---9-9-9-9/4-4-4-4----(x2)-------------------------------|
E |--5-5-5-5/4-4-4-4---7-7-7-7/2-2-2-2---------------------------------------|

Verse 2: Repeat Intro 4x

Chorus Twice

Bridge:

e |--------------------------------------------------|
B |--------------------------------------------------|
G |--------------------------11-11-11-11-11-11-11-11-|
D |-11-11-11-11-11-11-11-11--11-11-11-11-11-11-11-11-|
A |-11-11-11-11-11-11-11-11---9--9--9--9--9--9--9--9-|
E |--9--9--9--9--9--9--9--9--------------------------|


e |-------------------------------------------------------|
B |-------------------------------------------------------|
G |-------------------------------------------------------|
D |-12-12-12-12-12-12-12-12--11-11-11-11-11-11-11-11------|
A |-12-12-12-12-12-12-12-12--11-11-11-11-11-11-11-11-(2x)-|
E |-10-10-10-10-10-10-10-10---9--9--9--9--9--9--9--9------|


e |---------------------------------------------------|
B |---------------------------------------------------|
G |--------------------------11-11-11-11-11-11-11-11--|
D |-11-11-11-11-11-11-11-11--11-11-11-11-11-11-11-11--|
A |-11-11-11-11-11-11-11-11---9--9--9--9--9--9--9--9--|
E |--9--9--9--9--9--9--9--9---------------------------|

e |-------------------------------------------------------|
B |-------------------------------------------------------|
G |-------------------------------------------------------|
D |-12-12-12-12--11-11-11-11--9-9-9-9--7-7-7-7--6-6-6-6---|
A |-12-12-12-12--11-11-11-11--7-7-7-7--5-5-5-5--4-4-4-4---|
E |-10-10-10-10---9--9--9--9--7-7-7-7--5-5-5-5--4-4-4-4---|

e |----------------------------------|
B |----------------------------------|
G |----------------------------------|
D |--4-4-4-4--3-3-3-3--11-11-11-11---|
A |--4-4-4-4--3-3-3-3---9--9--9--9---|
E |--2-2-2-2--1-1-1-1---9--9--9--9---|

Verse 3: Repeat Intro 2x

Chorus Revised:

First 2 Lines song w/o music

e |----------------------------------------------------|
B |----------------------------------------------------|
G |----------------------------------------------------|
D |-7-6-4------7-7-7-7/6-6-6-6---9-9-9-9/4-4-4-4-------|
A |-7-6-4------7-7-7-7/6-6-6-6---9-9-9-9/4-4-4-4--(x2)-|
E |-5-4-2------5-5-5-5/4-4-4-4---7-7-7-7/2-2-2-2-------|


e |-----------------------------------------------------|
B |-----------------------------------------------------|
G |-7-6-4-----7-7-7-7/6-6-6-6---9-9-9-9/4-4-4-4---------|
A |-7-6-4-----7-7-7-7/6-6-6-6---9-9-9-9/4-4-4-4-(x3)----|
E |-5-4-2-----5-5-5-5/4-4-4-4---7-7-7-7/2-2-2-2---------|

Verse 4: Repeat Intro 2x

Outro:

e |----------------------------------------------------|
B |----------------------------------------------------|
G |----------------------------------------------------|
D |----------------------------------------------------|
A |-0--4-2--0-2-4--0-2-4-2-0-2-3--0-2-3--5-2-----------|
E |----------------------------------------------------|
Suggest correction What's this?
You can suggest a correction to this tab. Community and Mods will review your correction and vote to approve or reject it.
comments
We did not receive enough feedback on this tab! Please rate:
print report bad tab
1 2 3 4 5
I want to post or [tab]
guest
You may want to rate the tab now too:
select rating
Please do not post tabs as comments. Select "correction" instead!