Oops, an error
Loading. Please wait.

Walkie Talkie Man tab

version 4
version 4
17,064 views 27 this week
11 commentsread comments
1 2 3 4 5
x 38
add to favorites
×
Save as Personal and add changes to this tab that will be seen only by you. Learn more ›
×
You can save this tab as Personal to edit and correct it or add notes. All changes will be seen only by you. Learn more »
launch autoscroll
font size
0
reset
how to read this tab
guitar tuner
edit
Autoscroll
slow
fast
+/-
esc
set tempo
stop
Author
Song: Walkie Talkie Man
Artist: Steriogram
Tuning: Standard (EADGBe)
Tabbed by Andrew (xenolith42@hotmail.com)

Any comments, good or bad, please email me.  It\'s good to know what people think, and it\'s
encouraging to hear from people who appreciate my work.

Pm...= Palm mute
/ = Slide up
\\ = Slide Down
h = Hammer-on
p = Pull off
b = bend up to note
r = release bend
~ = Vibrato


Intro:
                                                                      
E|--------------------------|--------------------------|
B|--------------------------|--------------------------|
G|--------------------------|--------------------------|
D|--------------------------|--------------------------|
A|--------------------3--4--|--5--5--4--3--2--2--------|
E|--0--0--3--4--5--5--------|--------------------2--3--|
                                                                      
                                                        x2
                                                                      
E|--------------------------|--------------------------||
B|--------------------------|--------------------------||
G|--------------------------|--------------------------||
D|--------------------------|--------------------------||
A|--------------------3--4--|--5--5--4--3--2--2--2--2--||
E|--0--0--3--4--5--5--------|--------------------------||
                                                                      


Verse:
                                                                      
E|--------------------------|--------------------------|
B|--------------------------|--------------------------|
G|--------------------------|--------------------------|
D|--------------------------|--------------------------|
A|-----------2--0--0--4--0--|--5--5--------2--2--0--0--|
E|--0--0--3-----------------|--------2--2--------------|
  Pm...............................................   

                                                                      
E|--------------------------|--------------------------|
B|--------------------------|--------------------------|
G|--------------------------|--------------------------|
D|--------------------------|-----------------4-----2--|
A|-----------2--0--0--4--0--|--5--5-----------2-----0--|
E|--0--0--3-----------------|--------2--2--------------|
  Pm......................................           

E|--------------------------|--------------------------|
B|--------------------------|--------------------------|
G|--------------------------|--------------------------|
D|--------------------------|--------------------------|
A|-----------2--0--0--4--0--|--5--5--------2--2--0--0--|
E|--0--0--3-----------------|--------2--2--------------|
  Pm...............................................    

E|--------------------------|--------------------------|
B|--------------------------|--------------------------|
G|--------------------------|--------------------------|
D|--------------------------|--------------------------|
A|-----------2--0--0--4--0--|--5--5--------2--2--0--0--|
E|--0--0--3-----------------|--------2--2--------------|


Chorus:
(I didn\'t put in the strumming, only the chords.  It\'s fairly easy.)
   E5       A5       D5       B5               
E|--------|--------|--------|--------||
B|--------|--------|--------|--------||
G|--------|--------|--7-----|--4-----|| x3
D|--2-----|--7-----|--7-----|--4-----||
A|--2-----|--7-----|--5-----|--2-----||
E|--0-----|--5-----|--------|--------||
                                                   
 
    E5       A5       D5                               
E|--------|--------|-----------||
B|--------|--------|-----------||
G|--------|--------|--7--------||
D|--2-----|--7-----|--7--------||
A|--2-----|--7-----|--5--------||
E|--0-----|--5-----|-----------||
                                                  

Riff:
                                                                      
E|--------------------------|--------------------------|
B|--------------------------|--------------------------|
G|--------------------------|--------------------------|
D|--------------------------|--------------------------|
A|--------------------3--4--|--5--5--4--3--2--2--------|
E|--0--0--3--4--5--5--------|--------------------2--3--|
                                                                      

                                                                      
E|--------------------------|--------------------------||
B|--------------------------|--------------------------||
G|--------------------------|--------------------------||
D|--------------------------|--------------------------||
A|--------------------3--4--|--5--5--4--3--2--2--2--2--||
E|--0--0--3--4--5--5--------|--------------------------||
P.m.                          ........................


Play Verse again

Play chorus again


Instrumental break:
E|--------------------------|--------------------------|
B|--------------------4--5--|--6--6--5--4--3--3--------|
G|--------3--4--5--5--------|--------------------------|
D|--5--5--------------------|--------------------5--6--|
A|--------------------------|--------------------------|
E|--------------------------|--------------------------|
                                                                           

                                                                           
E---------------------------|----------------------|--------------||
B---------------------6--7--|--8-------------------|--------------||
G---------5--6--7--7--------|----------------------|--------------||
D---7--7--------------------|----------------------|--------------||
A---------------------------|-------------2--2--2--|--2--2--------||
E---------------------------|----------------------|--0--0--------||
                                                                          
Then only drums for a few bars.

Play Chorus again.

Play Intro riff again, but end on:

E|--------------------------|-----------------------------------------------------||
B|--------------------------|------------------------------10---------------------||
G|--------------------------|--------------------7-9-7-9b11---11r9-7-7h9p7---7-7--||
D|--------------------------|----------------7-9-----------------------------7-7--||
A|--------------------3--4--|--5~~---5/7-7/9---------------------------------5-5--||
E|--0--0--3--4--5--5--------|-----------------------------------------------------||

            
            
Suggest correction
Creating personal tab
Creating personal tab
You can edit any tab online and save it as your Personal.

You can edit, replace or remove any tab part or add personal notes – all changes will be seen only by you.

Personal tabs can be accessed anytime from any device, even offline.
Learn more »
comments
print report bad tab
11 comments total. Showing first comments.
0 reply
rnrigfts 10 Jan 17, 2006 03:27 PM

E|--------------------------|--------------------------|
B|--------------------------|--------------------------|
G|--------------------------|--------------------------|
D|--------------------------|--------------------------|
A|-----------2--0--0--4--0--|--5--5--------2--2--0--0--|
E|--0--0--3-----------------|--------2--2--------------|
Pm...............................................
its all right until you get here after the double 5 hits on the A string and you go back to the E its suppost to be a 3 instead of a 2 but the rest of it is good

0 reply
xenolith42 70 Jan 20, 2006 09:35 PM

Have a closer listen, and tell me if you still think so. Please. Thanks heaps for the feedback, it's much appreciated. I did have a few close listens to that bit, and played them on my guitar, and the stuff I tabbed sounds right. If it is a 3rd fret I just can't hear it. :p Anyway, thanks for the correction, it's appreciated.

0 reply
ordino 10 Mar 03, 2006 05:21 AM

awsome tab

guest
You may want to rate the tab now too:
select rating
Wanna post a correction for this tab? Suggest correction