Oops, an error
Loading. Please wait.

Even When Im Blue chords

version 2
version 2

Whole song

439 views 12 this week
no commentswrite comment
1 2 3 4 5
x 4
add to favorites
×
Save as Personal and add changes to this tab that will be seen only by you. Learn more ›
×
You can save this tab as Personal to edit and correct it or add notes. All changes will be seen only by you. Learn more »
launch autoscroll
font size
0
reset
transpose
0
reset
simplify chords
display chords
guitar tuner
edit
Autoscroll
slow
fast
+/-
esc
set tempo
stop
Strumming
There is no strumming pattern for this song yet. and get +5 IQ
Even When I'm Blue
Steve Earle  
Album Copperhead Road 
For Baritone Guitar

tuned to ADGCEA

                  Very fast            Very fast 
Intro  A  E  D  A ( E D A )    E  D  A  ( E D A )

Verse 1

A           E           D      A     ( E D A)
I've always heard that love is blind
E                  D               A     ( E D A )
   But I know that there's another kind
              E      D      A      ( E D A)  
Shines like a beacon in the night
E          D              A     ( E A )
  Holds up in the morning light

Chorus 1

            E          D               A          ( E A )
Cause in my dreams she travels with me when I run
          E          D                    Bm
But in my dreams she takes my hand when I make my stand
         E       E7     A  
When the morning always comes
                D              A    ( E D A )      
And I know it's too good to be true
E               D             A    ( E D A )
   She loves me even when I'm blue

Verse 2

A               E        D       A     ( E D A )
   No one can't say that I ain't tried
E            D                 A    ( E D A )
   I keep on searching far and wide
A                     E         D         A   ( E D A )
   Cause I know she's out there somewhere now
E                D                  A    ( E D A )
   And I'm gonna track her down somehow

Chorus 2

A           E          D               A          
Cause in my dreams she travels with me when I run
          E          D                    Bm
But in my dreams she takes my hand when I make my stand
        E        E7    A    
And the morning always comes
            D              A    ( E D A )            
I know it's too good to be true
E               D             A
   She loves me even when I'm blue 


 Riff  A E D A (E D A) E D A (E A) A E D A (E A) A E D A ( E A )
  (OR)
       A------------------------------------------------|
       E------------------------------------------------|
       C-------2-1--------------------------------------|
       G-----2----2-4-0-2--0-2---------2-0---------0-2--|
       D-0-0-------------0-----0----------4-2-4-0-0---0-|
       A-------------------------0-0-0------------------| 

       |-------------------------------------------------------|
       |-------------------------------------------------------|
       |-2-2-2-1--------------------------2-2-1----------------|
       | ---------2-4-0-2----0-2---------2-------2-4-0-2---0-2-|
       |-----------------0------0-5-2-------------------0-----0|
       |------------------------------5------------------------|

Chorus 3   

A           E          D               A
Cause in my dreams she travels with me when I run
          E           D                   Bm
But in my dreams she takes my hand when I make my stand
         E              A
When the morning always comes
                  D             A                         
And I know she's lookin' for me too
E               D             A    ( E D A )
   She loves me even when I'm blue
E               D             A     
   She loves me even when I'm blue ( E D A )

outro riff  A  E  D  A  E  D  A  
      (OR)
            A--------------------------------------------|
            E---2----------------------------------------|
            C-2---2-4-2-1-2-4----------------------------|
            G-----------------2-0-2-----2-0---------0-2--|
            D-----------------------0-2-----4-2-4-0-----0|
            A--------------------------------------------|


flyinglibra51
God Bless glen Travis Campbell

            
            
Suggest correction
Creating personal tab
Creating personal tab
You can edit any tab online and save it as your Personal.

You can edit, replace or remove any tab part or add personal notes – all changes will be seen only by you.

Personal tabs can be accessed anytime from any device, even offline.
Learn more »
comments
print report bad tab
guest
You may want to rate the tab now too:
select rating
Wanna post a correction for this tab? Suggest correction