Oops, an error
Loading. Please wait.

Galway Girl solo tab

version 4
version 4

Solo

412 views 15 this week
1 commentread comment
1 2 3 4 5
1 last vote to show rating
add to favorites
×
Save as Personal and add changes to this tab that will be seen only by you. Learn more ›
×
You can save this tab as Personal to edit and correct it or add notes. All changes will be seen only by you. Learn more »
launch autoscroll
font size
0
reset
how to read this tab
guitar tuner
edit
Autoscroll
slow
fast
+/-
esc
set tempo
stop
Author
Difficulty
About this tab version
Solo after the second chorus contains a bridge that is not on previous versions, also the fingering is different to keep the hand position from moving. Was this info helpful? Yes No
[solo after first chorus]
   D                          G               D         G   D      A     D   A           D
e|--------------------------|-7-7-7-9-10-9-7----------|-7-7----------------|-------------------------|
B|-----7----------7-7-7-----|----------------10-10-10-|-----10-10--8-7---7-|-------7-8-7-------------|
G|-7-9---9-7--7-9-------9-7-|-------------------------|----------------9---|-9-9-9-------9-7-7-------|
D|--------------------------|-------------------------|--------------------|-------------------------|
A|--------------------------|-------------------------|--------------------|-------------------------|
E|--------------------------|-------------------------|--------------------|-------------------------|

[solo after second chorus]
   D                          G               D         G   D      A     D   A           D
e|--------------------------|-7-7-7-9-10-9-7----------|-7-7----------------|-------------------------|
B|-----7----------7-7-7-----|----------------10-10-10-|-----10-10--8-7---7-|-------7-8-7-------------|
G|-7-9---9-7--7-9-------9-7-|-------------------------|----------------9---|-9-9-9-------9-7-7-------|
D|--------------------------|-------------------------|--------------------|-------------------------|
A|--------------------------|-------------------------|--------------------|-------------------------|
E|--------------------------|-------------------------|--------------------|-------------------------|

   D                          G               D         G   D      A     D   A           D
e|--------------------------|-7-7-7-9-10-9-7----------|-7-7----------------|-------------------------|
B|-----7----------7-7-7-----|----------------10-10-10-|-----10-10--8-7---7-|-------7-8-7-------------|
G|-7-9---9-7--7-9-------9-7-|-------------------------|----------------9---|-9-9-9-------9-7-7-------|
D|--------------------------|-------------------------|--------------------|-------------------------|
A|--------------------------|-------------------------|--------------------|-------------------------|
E|--------------------------|-------------------------|--------------------|-------------------------|

   G                       D           A      G   D    A     D  A           D
e|----7-7-7----7-9-10-7-|----------------|----7-7--------------|------------------|
B|-10-------10----------|-10-10-10-8-7---|-10----10-10-8-7---7-|------7-8-7-------|
G|----------------------|--------------9-|-----------------9---|-9-9-9------9-7-7-|
D|----------------------|----------------|---------------------|------------------|
A|----------------------|----------------|---------------------|------------------|
E|----------------------|----------------|---------------------|------------------|

[solo after third chorus]
   D                          G               D         G   D      A     D   A           D
e|--------------------------|-7-7-7-9-10-9-7----------|-7-7----------------|-------------------------|
B|-----7----------7-7-7-----|----------------10-10-10-|-----10-10--8-7---7-|-------7-8-7-------------|
G|-7-9---9-7--7-9-------9-7-|-------------------------|----------------9---|-9-9-9-------9-7-7-------|
D|--------------------------|-------------------------|--------------------|-------------------------|
A|--------------------------|-------------------------|--------------------|-------------------------|
E|--------------------------|-------------------------|--------------------|-------------------------|

   D                          G               D         G   D      A     D   A           D
e|--------------------------|-7-7-7-9-10-9-7----------|-7-7----------------|-------------------------|
B|-----7----------7-7-7-----|----------------10-10-10-|-----10-10--8-7---7-|-------7-8-7-------------|
G|-7-9---9-7--7-9-------9-7-|-------------------------|----------------9---|-9-9-9-------9-7-7-------|
D|--------------------------|-------------------------|--------------------|-------------------------|
A|--------------------------|-------------------------|--------------------|-------------------------|
E|--------------------------|-------------------------|--------------------|-------------------------|

   D                          G               D         G   D      A     D   A           D
e|--------------------------|-7-7-7-9-10-9-7----------|-7-7----------------|-------------------------|
B|-----7----------7-7-7-----|----------------10-10-10-|-----10-10--8-7---7-|-------7-8-7-------------|
G|-7-9---9-7--7-9-------9-7-|-------------------------|----------------9---|-9-9-9-------9-7-7-------|
D|--------------------------|-------------------------|--------------------|-------------------------|
A|--------------------------|-------------------------|--------------------|-------------------------|
E|--------------------------|-------------------------|--------------------|-------------------------|

            
            
Suggest correction
Creating personal tab
Creating personal tab
You can edit any tab online and save it as your Personal.

You can edit, replace or remove any tab part or add personal notes – all changes will be seen only by you.

Personal tabs can be accessed anytime from any device, even offline.
Learn more »
Give kudos to tab author, rate the tab!
1 2 3 4 5
comments
print report bad tab
1 comment total.
0 reply
travis.hatcher 10 3 days ago

Excellent! Glad you did the whole thing and not just the first bit like everyone else.

guest
You may want to rate the tab now too:
select rating
Wanna post a correction for this tab? Suggest correction