Oops, an error
Loading. Please wait.

Guitar Town Chords

version 1
version 1

Whole song

Interactive

80,396 views 165 this week
2 commentsread comments
1 2 3 4 5
worth learning
x 10
add to favorites
launch autoscroll
font size
0
reset
transpose
0
reset
simplify chords
display chords
guitar tuner
Autoscroll
slow
fast
+/-
esc
set tempo
stop
Help us to improve Ultimate-Guitar.com Take our survey!
×
[Verse]

G
Hey pretty baby are you ready for me
G                                                     C
              D
It's your good rockin' daddy down from Tennessee
D
I'm just outta Austin bound for San Antone
D             C
with the radio blastin' and the bird dog on

Speed trap up ahead Selma town
but no local yokel's gonna shut me down
Cause me and my boys got this rig unwound
and we've come a thousand miles from the guitar town.


[Solo]

the lead bit is in G, played over the verse chord progression. Sounds great
on an electric with a bit of vibrato and reverb.

e|-----------------------------------------------------------------------|
B|-----------------------------------------------------------------------|
G|-----------------------------------------------------------------------|
D|------------------------0----------------------------------------------|
A|------------2-0-----2-----3----------0--2--3--2--0-0---------0-2--3-2-0|
E|-0-3-3-3-----3--------------0--3-------------------------0-3-----------|


[Verse]

Nothin' ever happened round my home town
and I ain't the kind to just hang around
I heard someone callin' my name one day
so I followed that voice down the lost highway

Everybody told me you can't get far
on $37 and a Jap guitar
now I'm smokin into Texas with the hammer down
and a rockin' little combo from the guitar town.


[Bridge]

D
Hey pretty baby don't you know it ain't my fault
C                                          G
Love to hear the steel belts hummin on the asphalt
D
Wake up in the middle of the night in a truck stop
C                                         D7
Stumble in the restaurant, wonderin' why I don't stop


[Verse 3]

Well, I Gotta keep rockin while I still can
Got a two-pack habit and a motel tan
When my boots hit the boards I'm a brand new man
put my back to the risers and make my stand

Hey pretty baby won't you hold me tight
I'm loadin' up and rollin' out of here tonight
One of these days I'm gonna settle down
and I'll take you back with me to the guitar town


[Outro]

e|-----------------------------------------------------------------------|
B|-----------------------------------------------------------------------|
G|-----------------------------------------------------------------------|
D|------------------------0----------------------------------------------|
A|------------2-0-----2-----3----------0--2--3--2--0-0---------0-2--3-2-0|
E|-0-3-3-3-----3--------------0--3-------------------------0-3-----------|
 
repeat riff and out.
Suggest correction
comments
print report bad tab
2 comments total.
-1 reply
puddler 40 wrote on July 14 2004, 12:00 am

your riff is a little ***ed their buddy

-1 reply
DearAmbellina 52 wrote on May 29 2007, 03:06 pm

what the hell is that riff supposed to be?

guest
You may want to rate the tab now too:
select rating
Wanna post a correction for this tab? Suggest correction