Oops, an error
Loading. Please wait.

Lonely Are The Free Tab

version 1
version 1

Whole song

4,603 views 3 this week
1 commentread comment
1 2 3 4 5
please rate
add to favorites
launch autoscroll
font size
0
reset
how to read this tab
guitar tuner
Tab Pro tools
  • play this tab
  • loop segment
  • change instrument
  • show fretboard
  • metronome
×
Best way to learn
"Lonely Are The Free"
Autoscroll
slow
fast
+/-
esc
set tempo
stop
Contributor
Difficulty
intermediate
Steve Earle - Lonely Are The Free
Tabbed by Redmildew (redmildew@mail.ru)     

Chords:
C#5
A#5
F#



intro
E||----------------------------------------------------|
B||---------------------------6--7--6--4---------------|
G||---------------------------------------6------------|
D||------6-----6-----6-----6---------------------------|
A||---4-----4-----4-----4-----4--4--6--4-----8-----8---|
E||---------------------------------------6-----6------|

verse (can combine with intro)
---------------------------------||-----------------||----------------||---------------||
---------------------------------||-----------------||----------------||---------------||
---------------10--11--10--8--6--||-----------------||----------------||------3-----3--||
--------------------------------6||------6-----6----||----------------||---4-----4-----||
------8-----8-----------------4--||---4-----4-------||------8-----8---||---------------||
---6-----6-----6---6---6---6-----||-----------------||---6-----6------||---------------||

Lick in the beginning of last part of the song
-------(13)------(13)-------(13)------(13)----||
--------18--------18---------18--------18-----||
---15--------15--------15---------15----------||
----------------------------------------------||
----------------------------------------------||
----------------------------------------------||
comments
We did not receive enough feedback on this tab! Please rate:
print report bad tab
1 2 3 4 5
1 comment total.
0 reply
Redmildew wrote on March 20 2013, 07:25 am, edited on January 18 2014, 11:12 am

...

I want to post or [tab]
guest
You may want to rate the tab now too:
select rating
Please do not post tabs as comments. Select "correction" instead!