Oops, an error
Loading. Please wait.

Lonely Are The Free tab

version 2
version 2

Whole song

4,331 views 1 this week
1 commentread comment
1 2 3 4 5
x 4
add to favorites
×
Save as Personal and add changes to this tab that will be seen only by you. Learn more ›
×
You can save this tab as Personal to edit and correct it or add notes. All changes will be seen only by you. Learn more »
launch autoscroll
font size
0
reset
how to read this tab
guitar tuner
edit
Autoscroll
slow
fast
+/-
esc
set tempo
stop
Author
Difficulty
Steve Earle - Lonely are the free
tabbed by Karsten Quabeck

Hi there, it's my first time to offer you the chords and tabs. I can't find the 
chords of this beautiful song, so i've tried. 
I'm not a musician, but I think, it's close to Steve. If not, please contact me: 
karsten@quabeck.de. Thanks.


Capo Fret 3rd
Alle Angaben beziehen sich auf Capo im dritten Bund!!!!!
All Notations referred to the Capo on third!!!!

Basslinie (Entsprechend zu verlängern)
      A                            F#m                          D   
E||----------------------------  ---------------------------  ----------------------------||
B||----------------------------  ---------------------------  ----------------------------||
G||----------------------------  ---------------------------  ----2-----2-----2----2------||
D||------2-----2-----2-----2---  ---------------------------  --0----0-----0----0---------||
A||---0-----0-----0-----0------  -----4-----4-----4------4--  ----------------------------||
E||----------------------------  --2-----2-----2-----2------  ----------------------------||


               intro1 (first time)
   A                        F#m                       A
E||------------------------------------------------------||
B||-2----------2--3--2--0-------------2--3--2---0-----2--||
G||-2----2------------------2-------------------------2--||
D||----2-------------------------------------------------||
A||-0----------0--0--0--0---4---------4--4--4---4-----0--||
E||------------------------------------------------------||

               intro2 [second time (and then every time later)]
   A                   F#m                    A
E||----------------------------------------------||
B||-2------2--3--2--0---------2--3--2---0-----2--||
G||---------------------2------------------------||
D||----------------------------------------------||
A||-0------0--0--0--0---4-----4--4--4---4-----0--||
E||----------------------------------------------||


A
Lonely are the free   ('Cause) there ain't that many of them
           F#m                    intro2
They don't walk like you and me
       A
(They) just tumble in the breeze     Lighter than a feather 
    F#m                     intro2
All together, separately

D
That's how it's s'posed to be    No matter where they wander
     F#m
From post to in between, From here to over yonder,
            A                      intro2   F#m                  intro2
There's no place for them to land           Lonely are the free

     A
The silent are the strong       Not so much as a whisper
           F#m                  intro2
Tells you anything is wrong
    A
You've known all along, But you can't help but listen
    F#m                       intro2
And now the moment's gone.

D
It keeps you hanging on Until the stillness signaling
     F#m
The breaking of the dawn, Is shattered by the sirens
         A                intro2      F#m
Singing sacrificial songs             The silent are the strong.

Break 2 x 
   A                    F#m 
E||--------------------------------------------------||
B||--2-2-2--2--3--2-------2-2-2-2--2--3--2-----------||
G||--------------------------------------------------||
D||--------------------------------------------------||
A||-0-0-0---0--0--0----------------4--4--4-----------||
E||----------------------2-2-2-2---------------------||


D  
That's all they used to see    A violent shadow passing 'cross
    F#m
The sun so fleetingly
            F#m                        A                  intro2
That if you have to ask you miss it   Anyway you see
F#m                       intro2
Lonely are the free 


Break 4 x 
   A                    F#m 
E||--------------------------------------------------||
B||--2-2-2--2--3--2-------2-2-2-2--2--3--2-----------||
G||--------------------------------------------------||
D||--------------------------------------------------||
A||-0-0-0---0--0--0----------------4--4--4-----------||
E||----------------------2-2-2-2---------------------||


End on A!!!!

            
            
Suggest correction
Creating personal tab
Creating personal tab
You can edit any tab online and save it as your Personal.

You can edit, replace or remove any tab part or add personal notes – all changes will be seen only by you.

Personal tabs can be accessed anytime from any device, even offline.
Learn more »
comments
print report bad tab
1 comment total.
0 reply
karstenQ 398 Sep 17, 2016 04:28 PM

Inbetwen i found out, it works also with C, F, G.
Try it

guest
You may want to rate the tab now too:
select rating
Wanna post a correction for this tab? Suggest correction