Oops, an error
Loading. Please wait.

Broadcast Tab

5,882 views 3 this week
4 commentsread comments
1 2 3 4 5
accurate
x 4
add to favorites
launch autoscroll
font size
0
reset
how to read this tab
guitar tuner
Autoscroll
slow
fast
+/-
esc
set tempo
stop
Help us to improve Ultimate-Guitar.com Take our survey!
×
Author
----------------------------------------------------------------------------
                             SONG NAME - Band Name
----------------------------------------------------------------------------
Tabbed by: Kyle
Email: k.muscara@yahoo.com

Tuning: Drop D

Intro
Play twice
the verse is basically the same except you dont play the first part.
e|------------------------------------------------------------------|
B|------------------------------------------------------------------|  
G|-9-9-9-9-9-9-9-7-7-9-7--------------------------------------------| 
D|-----------------------10-7---7--7--7-4-7-10--10--10-9--9-9-------|
A|------------------------------7--7--7-4-7-10--10--10-9--9-9-------|
D|------------------------------7--7--7-4-7-10--10--10-9--9-9-------|

"Shake this ground..."    "Our God reigns..."
e|-------------------------------------------------------------------------|
B|-------------------------------------------------------------------------|
G|--7~---------------------9~----------------------------------------------|
D|--7~---------------------9~----------------------------------------------|
A|--5~---------------------7~----------------------------------------------|
D|-------------------------------------------------------------------------|

Chorus
e|-------------------------------------------------------------------------|
B|-------------------------------------------------------------------------|
G|-----------------------------7-------------------------------------------|
D|--7--------9--------4--------7--(x8)-----------(PLAY TWICE)--------------|
A|--7--(x8)--9--(x8)--4--(x8)--5-------------------------------------------|
D|--7--------9--------4----------------------------------------------------|

The bridge was a little tricky, not sure if it's 100% but here's what i got.
One guitar plays the intro riff while another plays this.  Come in after the bass.
e|-------------------------------------------------------------------------|
B|-------------------------------------------------------------------------|
G|-------------------------------------------------------------------------|
D|--7--------6--------5--------3--------2----------------------------------|
A|--7--(x8)--6--(x8)--5--(x8)--3--(x4)--2--(x4)----------------------------|
D|--7--------6--------5--------3--------2----------------------------------|

At the end of the bridge end on the F (on the third fret) then slide up an octave.
 you'll hear it in the song. that's pretty much it.
  listen to the song and you should get it.

Intro
Verse
Chorus
Verse
Chorus x2
Bridge
Chorus
Outro (play chords from bridge)


| /  slide up
| \  slide down
| h  hammer-on
| p  pull-off
| ~  vibrato
| +  harmonic
| x  Mute note
===============================================================================
Suggest correction
What's this?
You can suggest a correction to this tab. Community and Mods will review your correction and vote to approve or reject it.
comments
print report bad tab
4 comments total. Showing first comments.
0 reply
southtownmatt 101 wrote on September 20 2008, 10:30 pm

good tab. About time some one made one for steve fee. I think the intro sounds better like this....

e|--0-0-0-0-0-0-0-0-0-0-0-------------------------------------------|
B|--5-5-5-5-5-5-5-3-3-5-3-------------------------------------------|
G|------------------------5-2---------------------------------------|
D|------------------------------7--7--7-4-7-10--10--10-9--9-9-------|
A|------------------------------7--7--7-4-7-10--10--10-9--9-9-------|
D|------------------------------7--7--7-4-7-10--10--10-9--9-9-------|

Its kind of hard to do that flawlessly with 1 guitar though. Might want to stick with the first version if you only have 1 guitar.

0 reply
guitargeek140 639 wrote on April 9 2009, 11:09 am

sounds really good to me as posted, but i like the idea here about having the two guitars working the intro

0 reply
Zimouskii 59 wrote on August 19 2009, 12:21 pm

I think doing what southtownmatt put was correct, i saw your tab and i was like, that isn't right. :|

But i also believe doing the E variation using the e and b string sounds perfectly fine with one guitar.

guest
You may want to rate the tab now too:
select rating
Please do not post tabs as comments. Select "correction" instead!