Oops, an error
Loading. Please wait.

Everything Falls Chords

version 1
version 1

Whole song

51,137 views 81 this week
2 commentsread comments
1 2 3 4 5
excellent!
x 11
add to favorites
launch autoscroll
font size
0
reset
transpose
0
reset
- display chords -
guitar tuner
Tab Pro tools
  • play this tab
  • loop segment
  • change instrument
  • show fretboard
  • metronome
Autoscroll
slow
fast
+/-
esc
set tempo
stop
Contributor
Difficulty
intermediate
Everything Falls
Fee - Hope Rising

Based off the acoustic version by Fee, found online, which was done in B. The album Hope 
does the song in C.

(Intro) Riff
(No capo, Version 1)
E------------|--------------|
A------------|--------------|
D------------|--------------|
G--5-7-9-9---|--5-10-9-7-5--|
B------------|--------------|
e------------|--------------|
     x3            x1

(No capo, Version 2: Same notes, different places on the neck)
E------------|--------------|
A------------|--------------|
D------------|--------------|
G--5-7-------|--5-----7-5---|
B------5-5---|----6-5-------|
e------------|--------------|
     x3            x1

(Capo 5, Version 3: Same notes, when capo 5 is used; ie, 0 = capo on 5th fret, played open)
E------------|--------------|
A------------|--------------|
D------------|--------------|
G--0-2-------|--0-----2-0---|
B------0-0---|----1-0-------|
e------------|--------------|
     x3            x1

Chords: Capo 5
[verse 1]
Em  C
you said
      G                  D
you'd never leave or forsake me
     Em  C
when you said,
     G            D
this life is gonna shake me
Em  C
you said
      G                    D             C
this world is gonna bring trouble on my soul
       D
this i know

[chorus]
     D                Em
when everything falls apart
     C            G
your arms hold me together
     D                Em
when everything falls apart
                C             G
you're the only hope for this heart
     D                Em
when everything falls apart
       C
and my strength is gone
G          D          C
i find you mighty and strong
                 D
you keep holding on
                 Em
you keep holding on

[verse 2]
Em     C
when i see
     G            D
the darkness all around me
Em     C
when i see
      G          D
that tragedy has found me
Em       C
i still believe
      G                 D            C
your faithful arms will never let me go
            D
and still i know

[chorus]

[bridge]
C          D            Em
sorrow may last for the night
            C
but hope is rising with the sun
    D
its rising with the sun
C             D              Em
there will be storms in this life
           C
but i know you will overcome
D
you will overcome

[chorus until end]
comments
print report bad tab
2 comments total.
0 reply
Stoofbird11 wrote on March 12 2010, 12:35 am

Great as far as I can tell except for your tab at the start - generally you list the strings High to Low, the opposite way that you did it, which made it a little hard for me to figure out at the start, but the notes sound right none the less if you figure that out.

0 reply
XAS_Bravo wrote on June 12 2010, 07:49 am

Almost. Here's the actual:

S S E E S S E E S S E S S E E E E E E E
E|-----------------------------|----------------------------|
B|------5--5------5--5------5--|------5--5-----6--5---------|
G|--5-7-------5-7-------5-7----|--5-7-------5--------7--5--*|
D|-----------------------------|---------------------------*|
A|-----------------------------|----------------------------|
E|-----------------------------|----------------------------|

Duration Legend
---------------
E - 8th
S - 16th

I'll be posting this again, including a Guitar Pro format if anyone wants to see the additional piano parts for the intro too.

I want to post or [tab]
guest
You may want to rate the tab now too:
select rating
Please do not post tabs as comments. Select "correction" instead!