Oops, an error
Loading. Please wait.

Rise And Sing Tab

version 1
version 1

Whole song

16,209 views 6 this week
no commentswrite comment
1 2 3 4 5
accurate
x 3
add to favorites
launch autoscroll
font size
0
reset
how to read this tab
guitar tuner
Tab Pro tools
  • play this tab
  • loop segment
  • change instrument
  • show fretboard
  • metronome
×
Best way to learn
"Rise And Sing"
Autoscroll
slow
fast
+/-
esc
set tempo
stop
Contributor
Difficulty
intermediate
I have figured out the song Rise and Sing by Steve Fee. I will post the
Guitar Lead parts as well as Copy/Paste the chords from Fee's website. All
Of these tabs are in original key. I figured these out and they are correct.

Effects: Delay set to tempo. Nice Chunky Distortion. Lighter Overdrive for some parts.

Intro: Delay and Overdrive. (lots of repeats)
E-----------------------------------------------|
A--2----------------2---------------------2-----|
D--X----------------X---------------------X-----|
G--4----------------4---------------------4-----|
B-----------------------------------------------|
e-----------------------------------------------|

Riff 1:
E--7-------XX-7-------7---------7-----------------|
A----------XX-------------------------------------|
D----9-9-7-XX---9-9-7-----9-9-7----9-9-7---7------|
G----------------------------------------6--------|
B-------------------------------------------------|
e---------------------------------------------x2--|

Riff 2: Whoa Oh Whoa Oh Oh Oh Oh
E-------------------------------------------------|
A-------------------------------------------------|
D-------------------------------------------------|
G-------------------------------------------------|
B-------------------12----------------------------|
e-14-11-12-11-12-11---------------------------x4--|

Repeat Riff 1 x2

Pre-chorus:
B E B E

Riff 1 x2

Pre-chorus:
B E B E

Chorus:
B D# G# F# B D# G# F#

Riff 2 x2

Riff 1 x2

Pre-chorus:
B E B E

Chorus:
B D# G# F# B D# G# F#
B D# G# F# B D# G# F#

Riff 2 x2

Bridge: The Lead wasn't loud enough for me to try and tab it so I improvise.

Chorus:
B D# G# F# B D# G# F#
Chorus:
B D# G# F# B D# G# F#
Chorus:
B D# G# F# B D# G# F#

And, the chords:

Intro - B-E-G#m-F#-E
B E Eb E
If you're alive and you've been redeemed rise and sing, rise and sing
B E Eb E
If you've been touched by the mercy King rise and sing, rise and sing
B E B E
whoa-oh-who-oh-oh-oha, whoa-oh-who-oh-oh-oha
B E Eb E
If you were bound, but now you're free rise and sing, rise and sing
B E Eb F#
Lift up a shout of victory rise and sing, rise and sing
B E B E
whoa-oh-who-oh-oh-oha, whoa-oh-who-oh-oh-oha
B Eb
Our God is risen and reigning
G#m F# E B Eb G#m
And we're elevating the glory of our God and King
F# (E-ending only) (B-E-G#m-F#-E)
Everybody rise and sing
B E Eb E
If in your heart rings a melody, rise and sing rise and sing
B E Eb F#
If you have tasted and you have seen rise and sing rise and sing
B E B E
whoa-oh-who-oh-oh-oha, whoa-oh-who-oh-oh-oha
B E E B
Let the redeemed of the Lord sing hallelujah, hallelujah
E E B
Let the redeemed of the Lord sing our God reigns, our God reigns
B Eb G#m F# E E B
Let the redeemed of the Lord sing hallelujah, hallelujah
B Eb G#m F# E B
Let the redeemed of the Lord sing our God reigns, our God reigns

They aren't spaced out but you get the idea.

questions or comments or corrections davidbeam47@yahoo.com
comments
We did not receive enough feedback on this tab! Please rate:
print report bad tab
1 2 3 4 5
I want to post or [tab]
guest
You may want to rate the tab now too:
select rating
Please do not post tabs as comments. Select "correction" instead!