Oops, an error
Loading. Please wait.

Rise And Sing Tab

version 2
version 2

Whole song

19,762 views 6 this week
2 commentsread comments
1 2 3 4 5
x 10
add to favorites
launch autoscroll
font size
0
reset
how to read this tab
guitar tuner
Autoscroll
slow
fast
+/-
esc
set tempo
stop
Help us to improve Ultimate-Guitar.com Take our survey!
×
Author
Difficulty
intermediate
Both guitars I and II have a good amount of distortion.

INTRO I 

Guitar I Intro (with delay)

e|--------------------------------------------------------------------------|
B|--------------------------------------------------------------------------|
G|----4-------------------------------4-------------------------------------|
D|----4-------------------------------4-------------------------------------|
A|----2-------------------------------2-------------------------------------|
E|--------------------------------------------------------------------------|
Just hit a B chord a couple of times with delay set to tempo.
Guitar I hits that last strum of the B as Guitar II starts.

Guitar II Intro

e|--------------------------------------------------------------------------|
B|--------------------------------------------------------------------------|
G|----------------------------------------------------------------------6---|
D|-----9-7-9-7---9--------9-7-9-7---9--------9-7-9-7---9--------9---7-9---9-|
A|-9-9----------------7-7----------------6-6----------------7-7---7---------|
E|--------------------------------------------------------------------------|
Play this twice, then...

INTRO PART II

Guitar I (No delay for the rest of the song)

e|--------------------------------------------------------------------------|
B|--------------------------------------------------------------------------|
G|----4----------------8----------------------------------9-----------------|
D|----4----------------8----------------6-----------------9-----------------|
A|----2----------------6----------------6-----------------7-----------------|
E|--------------------------------------4-----------------------------------|
      B                D#               G#                E

Guitar II

e|--------------------------------------------------------------------------|
B|--------------------------------------------------------------------------|
G|----11----8----9--8--9--8-------------11----8----9--8--9--8---------------|
D|---------------------------9---------------------------------9------------|
A|--------------------------------------------------------------------------|
E|--------------------------------------------------------------------------|
Play these parts together twice.


VERSE I

Guitar I

these are just octaves...
e|--------------------------------------------------------------------------|
B|--------------------------------------------------------------------------|
G|----4----------------9----------------8----------------9------------------|
D|----X----------------X----------------X----------------X------------------|
A|----2----------------7----------------6----------------7------------------|
E|--------------------------------------------------------------------------|
      B                E                D#               E

Guitar II

e|--------------------------------------------------------------------------|
B|--------------------------------------------------------------------------|
G|----------------------------------------------------------------------6---|
D|-----9-7-9-7---9--------9-7-9-7---9--------9-7-9-7---9--------9---7-9---9-|
A|-9-9----------------7-7----------------6-6----------------7-7---7---------|
E|--------------------------------------------------------------------------|
Play these parts together twice.


PRE-CHORUS

Either guitar...................Whoa, oh, oh oh....

e|--------------------------------------------------------------------------|
B|--------------------------------------------------------------------------|
G|----4--------9--------4--------9------------------------------------------|
D|----4--------9--------4--------9------------------------------------------|
A|----2--------7--------2--------7------------------------------------------|
E|--------------------------------------------------------------------------|
      B        E        B        E

VERSE 2, Guitar I the same, Guitar II slightly different

Guitar II

e|--------------------------------------------------------------------------|
B|--------------------------------------------------------------------------|
G|----------------------------------------------------------------------6---|
D|-----9-7-9-7---9--------9-7-9-7---9--------9-7-9-7---9--------9---7-9---9-|
A|-9-9----------------7-7----------------6-6----------------7-7---7---------|
E|--------------------------------------------------------------------------|
this once...

e|--------------------------------------------------------------------------|
B|--------------------------------------------------------------------------|
G|--------------------------------------------------------------------------|
D|-----9-7-9-7---9--------9-7-9-7---9--------9-7-9-7---9--------9-7-9-7---9-|
A|-9-9----------------7-7----------------6-6----------------7-7-------------|
E|--------------------------------------------------------------------------|
and then this once...


PRE-CHORUS again


CHORUS

Either or both guitars...

e|--------------------------------------------------------------------------|
B|--------------------------------------------------------------------------|
G|----4--------8-----------------9--------4--------8------------------9-----|
D|----4--------8--------6--------9--------4--------8--------6---------9-----|
A|----2--------6--------6--------7--------2--------6--------6---------7-----|
E|----------------------4-----------------------------------4---------------|
      B        D#       G#       E        B        D#       G#        E


Back to INTRO PART II (but only once this time)

VERSE 3 (same as verse 2)

PRE-CHORUS

CHORUS X 2

Back to INTRO PART II again (also only once)


BRIDGE

In the bridge, Guitar II has some delay effects that I haven't figured out.
But here's Guitar I...

Guitar I

e|--------------------------------------------------------------------------|
B|--------------------------------------------------------------------------|
G|--------------------------4---------------------------------4-------------|
D|--------------------6--4--4---------------------------6--4--4-------------|
A|--------------------6--4--2---------------------------6--4--2-------------|
E|--------------------4--2------------------------------4--2----------------|
                      G# F# B                           G# F# B

and then just one strum each...
e|--------------------------------------------------------------------------|
B|--------------------------------------------------------------------------|
G|----4--------8-----------------9--------4--------8-----------------9------|
D|----4-X-1----8-X-1----6--------9-X-1----4-X-1----8-X-1----6--------9-X-1--|
A|----2--------6--------6-X-1----7--------2--------6--------6-X-1----7------|
E|----------------------4-----------------------------------4---------------|
      B        D#       G#       E        B        D#       G#       E


Back to the CHORUS two more times but the second one is special like this:

Special CHORUS

Guitar I

e|--------------------------------------------------------------------------|
B|--------------------------------------------------------------------------|
G|----4-4---------8---------------9-4-4-----------8-------------------------|
D|----4-4---------8-6-6-----------9-4-4-----------8-6-6---------------------|
A|----2-2---------6-6-6-----------7-2-2-----------6-6-6---------------------|
E|------------------4-4-----------------------------4-4---------------------|
      B           D# G#           E  B            D# G#

Guitar II

e|-------------11--------12---------11--------------------------------------|
B|----12-12-------9-9------12-12-------9-keep strumming and bend a half step|
G|--------------------------------------------------------------------------|
D|--------------------------------------------------------------------------|
A|--------------------------------------------------------------------------|
E|--------------------------------------------------------------------------|


CHORUS X 1 again

Then end on this

Either or both guitars...
(the last chorus)
e|--------------------------------------------------------------------------|
B|--------------------------------------------------------------------------|
G|----4--------8-----------------9---9---9---4------------------------------|
D|----4--------8--------6--------9---9---9---4------------------------------|
A|----2--------6--------6--------7---7---7---2------------------------------|
E|----------------------4---------------------------------------------------|
      B        D#       G#       E   E   E   B

Suggest correction
comments
print report bad tab
2 comments total.
0 reply
SpacePirateFace 20 Aug 07, 2010 05:55 PM

This is wrong.

The Intro Pt. II chords are

B E G#m F# E

the chorus is

B B/D# G#m F# E

B/D# = x84440

0 reply
Rarrlow 2,157 Apr 07, 2014 06:25 PM

I personally didn't see any errors. Five stars in my opinion. Good job, and thank you!

guest
You may want to rate the tab now too:
select rating
Wanna post a correction for this tab? Suggest correction