Oops, an error
Loading. Please wait.

Rise And Sing Tab

version 4
version 4

Whole song

5,971 views 1 this week
no commentswrite comment
1 2 3 4 5
excellent!
x 4
add to favorites
launch autoscroll
font size
0
reset
how to read this tab
guitar tuner
Tab Pro tools
  • play this tab
  • loop segment
  • change instrument
  • show fretboard
  • metronome
×
Best way to learn
"Rise And Sing"
Autoscroll
slow
fast
+/-
esc
set tempo
stop
Contributor
Difficulty
Rise and sing by FEE. Have fun!

Rise and Sing

Chorus: (1st time chording only, other times all with 8th beats)
           B         D#m
Our God is risen and reigning
    G#m   F#   E        B        D#m         G#m
And we're elevating the glory of our God and King
F#        E
Everybody rise and sing

INTRO Part II X2
e|-------------------------------------------------------------------------|
B|-------------------------------------------------------------------------|
G|---------------------------------------------------------------------6---|
D|-----9-7-9-7---9-------9-7-9-7---9--------9-7-9-7---9--------9---7-9---9-|
A|-9-9----------------7-7---------------6-6----------------7-7---7---------|
E|-------------------------------------------------------------------------|

INTRO Part III X2

Guitar I (No delay for the rest of the song)	
	
e|-14---11---12---11-12-11----------------------------------------------|
B|-------------------------12-------------------------------------------|
G|----------------------------------------------------------------------|
D|----------------------------------------------------------------------|
A|----------------------------------------------------------------------|
E|----------------------------------------------------------------------|

And

Guitar II

e|----2----------------6----------------4-----------------2--------------0-|
B|----4----------------7----------------4-----------------2--------------0-|
G|----4----------------8----------------5-----------------3--------------1-|
D|----4----------------8----------------6-----------------4--------------2-|
A|----2----------------6----------------6-----------------4--------------2-|
E|--------------------------------------4-----------------2--------------0-|	
      B (x8)          D#m (x8)          G# (x8)           F# (x4)        E (x4)	
	
Play these parts together twice.	
	

Verse 1: 

Gtr 2
B7        E                B7/D#         E
If you're alive and you've been redeemed rise and sing, rise and sing
B7        E                B7/D#         E
If you've been touched by the mercy King rise and sing, rise and sing

And

Gtr 1
e|-------------------------------------------------------------------------|
B|-------------------------------------------------------------------------|
G|---------------------------------------------------------------------6---|
D|-----9-7-9-7---9-------9-7-9-7---9--------9-7-9-7---9--------9---7-9---9-|
A|-9-9----------------7-7---------------6-6----------------7-7---7---------|
E|-------------------------------------------------------------------------|


whoa-oh-who-oh-oh-oha, whoa-oh-who-oh-oh-oha (x2)
e|------------------------------------------------------------------------|
B|------------------------------------------------------------------------|
G|---------------------9--------------------------------------------------|
D|----9----------------9--------------------------------------------------|
A|----9----------------7--------------------------------------------------|
E|----7-------------------------------------------------------------------|

Verse 2: 

Gtr 2
B7        E                B7/D#         E
If you were bound but now you’re free rise and sing, rise and sing
B7        E                B7/D#         E
Lift up a shout of victory rise and sing, rise and sing

And

Gtr 1
e|-------------------------------------------------------------------------|
B|-------------------------------------------------------------------------|
G|---------------------------------------------------------------------6---|
D|-----9-7-9-7---9-------9-7-9-7---9--------9-7-9-7---9--------9---7-9---9-|
A|-9-9----------------7-7---------------6-6----------------7-7---7---------|
E|-------------------------------------------------------------------------|


whoa-oh-who-oh-oh-oha, whoa-oh-who-oh-oh-oha (x2)
e|------------------------------------------------------------------------|
B|------------------------------------------------------------------------|
G|---------------------9--------------------------------------------------|
D|----9----------------9--------------------------------------------------|
A|----9----------------7--------------------------------------------------|
E|----7-------------------------------------------------------------------|

Repeat Chorus

(After Chorus) Guitar I	
	
e|-14---11---12---11-12-11----------------------------------------------|
B|-------------------------12-------------------------------------------|
G|----------------------------------------------------------------------|
D|----------------------------------------------------------------------|
A|----------------------------------------------------------------------|
E|----------------------------------------------------------------------|

And

Guitar II

e|----2----------------6----------------4-----------------2--------------0-|
B|----4----------------7----------------4-----------------2--------------0-|
G|----4----------------8----------------5-----------------3--------------1-|
D|----4----------------8----------------6-----------------4--------------2-|
A|----2----------------6----------------6-----------------4--------------2-|
E|--------------------------------------4-----------------2--------------0-|	
      B (x8)          D#m (x8)          G# (x8)           F# (x4)        E (x4)

Verse 3: 


Gtr 2
B7        E                B7/D#         E
If in your heart rings a melody rise and sing, rise and sing
B7        E                B7/D#         E
If you have tasted and you have seen rise and sing, rise and sing

And

Gtr 1
e|-------------------------------------------------------------------------|
B|-------------------------------------------------------------------------|
G|---------------------------------------------------------------------6---|
D|-----9-7-9-7---9-------9-7-9-7---9--------9-7-9-7---9--------9---7-9---9-|
A|-9-9----------------7-7---------------6-6----------------7-7---7---------|
E|-------------------------------------------------------------------------|


whoa-oh-who-oh-oh-oha, whoa-oh-who-oh-oh-oha (x2)
e|------------------------------------------------------------------------|
B|------------------------------------------------------------------------|
G|---------------------9--------------------------------------------------|
D|----9----------------9--------------------------------------------------|
A|----9----------------7--------------------------------------------------|
E|----7-------------------------------------------------------------------|

Repeat chorus

(After Chorus) Guitar I	
	
e|-14---11---12---11-12-11----------------------------------------------|
B|-------------------------12-------------------------------------------|
G|----------------------------------------------------------------------|
D|----------------------------------------------------------------------|
A|----------------------------------------------------------------------|
E|----------------------------------------------------------------------|

And

Guitar II

e|----2----------------6----------------4-----------------2--------------0-|
B|----4----------------7----------------4-----------------2--------------0-|
G|----4----------------8----------------5-----------------3--------------1-|
D|----4----------------8----------------6-----------------4--------------2-|
A|----2----------------6----------------6-----------------4--------------2-|
E|--------------------------------------4-----------------2--------------0-|	
      B (x8)          D#m (x8)          G# (x8)           F# (x4)        E (x4)

Bridge (through whole bridge)

Gtr 1
e|-----7-------------------------7-----------------------------------------|
B|--------4-5-4-5-4-(x3)------------4-5-4-5-7------------------------------|
G|-4-4-----------------------4-4-------------------------------------------|
D|-------------------------------------------------------------------------|
A|-------------------------------------------------------------------------|
E|-------------------------------------------------------------------------|	

Gtr 2
B                                                       F#-E B
Let the redeemed of the Lord sing hallelujah, hallelujah
B                                                       F#-E B
Let the redeemed of the Lord sing our God reigns, our God reigns
B       D#m	G#m     F# E
Let the redeemed of the Lord sing hallelujah, hallelujah
B       D#m	G#m     F# E
Let the redeemed of the Lord sing our God reigns, our God reigns 
(last 2 lines - All)

Repeat Chorus (x3) (Heavy/Light/Heavy/Big Finish)
  
comments
print report bad tab
I want to post or [tab]
guest
You may want to rate the tab now too:
select rating
Please do not post tabs as comments. Select "correction" instead!