Oops, an error
Loading. Please wait.

We Shine Tab

version 1
version 1

Whole song

Interactive

18,822 views 1 this week
1 commentread comment
1 2 3 4 5
please rate
add to favorites
launch autoscroll
font size
0
reset
how to read this tab
guitar tuner
Autoscroll
slow
fast
+/-
esc
set tempo
stop
Help us to improve Ultimate-Guitar.com Take our survey!
×
Author
Intro

Guitar 1
---------------------------------------13-13---|
-13-15-15-13-15-15-13-15-15-13-15-13-13-----13-|
-----------------------------------------------|
-----------------------------------------------|
-----------------------------------------------|
-----------------------------------------------|

Guitar 2
----------------------------------------|
----------------------------------------|
---2---2--0-----0-------2---2-0-----0---|
-0---0--0---3-0---3-------------3-----3-|
----------------------1---1--1----1-----|
----------------------------------------|

----------------------------------------|
----------------------------------------|
--2--2-0-----0------2--2-0-----0--------|
---------3-----3-----------3-----3------|
-3--3-3----3----------------------------|
------------------3---3-3----3----------|


Verse
(Also played in the intro)
----------------------------------------|
----------------------------------------|
---2---2--0-----0-------2---2-0-----0---|
-0---0--0---3-0---3-------------3-----3-|
----------------------1---1--1----1-----|
----------------------------------------|

---------------------------------------|
---------------------------------------|
--2--2-0-----0------2--2-0-----0-------|
---------3-----3-----------3-----3-----|
-3--3-3----3---------------------------|
------------------3---3-3----3---------|


Pre-Chorus
Just one note:
-----
-15--  Chords: D  Bb  C  G
-----
-----
-----
-----


Chorus
I used lots of downstrokes, but it was quite tiring.. you might like to try both down 
up strokes here:
-------------------|
-7-7-7-8-8-8-10..--|
-7-7-7-7-7-7-7...--| x3
-------------------|
-------------------|
-------------------|

-------------10-10-10-10..--|
-7-7-7-8-8-8-8--8--8--8...--|
-7-7-7-7-7-7-7--7--7--9...--|
----------------------------|
----------------------------|
----------------------------|
Suggest correction
Give kudos to tab author, rate the tab!
1 2 3 4 5
comments
print report bad tab
1 comment total.
0 reply
sns4jc 10 wrote on June 14 2009, 08:12 pm

I need bass tabs for dis song....help me?

guest
You may want to rate the tab now too:
select rating
Wanna post a correction for this tab? Suggest correction