Oops, an error
Loading. Please wait.

What Else Can I Do Tab

version 1
version 1

Whole song

5,420 views 1 this week
1 commentread comment
1 2 3 4 5
please rate
add to favorites
launch autoscroll
font size
0
reset
how to read this tab
guitar tuner
Autoscroll
slow
fast
+/-
esc
set tempo
stop
Help us to improve Ultimate-Guitar.com Take our survey!
×
Difficulty
novice
 What Else Can I Do - Steve Fee
 tabbed by: thread her
 email: yexus_punk@hotmail.com

 hmm...i noticed that this song wasn't posted up
 so i decided to write out the tabs myself..
 well this aint exactly like Steve Fee but this is the 
 WHAY praise & worship version. it's close enough to the 
 original that i'm sure you'll enjoy it. it isn't too 
 hard but it takes some time & practice...anyway, 
 this is one of the greatest worship songs out there...
 enjoy and GOD BLESS!!

 tuning: standard
 capo: 6
 key:
     h = hammer
     () = optional but not needed

 to help with fingering here are the chords used
 (i'm not sure what all the chords are really named so just go with it)

  E:022033
 DF:200233
  C:032033
  A:002233
  G:320033
  D:000232
  
 intro:
                                                   (only 4th time)
 e|------------------------------------------------|-----------|
 B|------------------------------------------------|-----------|
 G|----------0---0h2---2--0---------0---------0----|-------0---|
 D|--------0---0-----0---------0h2--------0h2------|---0h2-----|
 A|--0h2---------------------3----------3----------|--3--------|
 E|------0---0---2-----2---------------------------|-----------|  X4


 verse:

 e|----------------------------------------------|
 B|----------------------------------------------|
 G|----------0---0h2---2--0---------0---------0--|
 D|--------0---0-----0---------0h2--------0h2----|
 A|--0h2---------------------3----------3--------|
 E|------0---0---2-----2-------------------------| X6

 i think steve fee adds this part after 3rd repeat..

 e|---------------------------------------|
 B|---------------------------------------|
 G|------0---------0---------0--------0---|
 D|----2---2-----0---0---0h2------0h2-----|
 A|--0-------0h2-------3--------3---------|
 E|---------------------------------------|

 (if you choose to play this part, only repeat top 
 pattern 5x instead of 6x)

 prechorus:
 choose between one of these two

 e|---------------------------------------------------------|
 B|---------------------------------------------------------|
 G|-------2-------2-0-----0-------0---------0---------0-----|
 D|-----2---2---2-------0-------0---0---0h2-------0h2---0---|
 A|---0-------0-----------------------3---------3-----------|
 E|-------------------3-------3-----------------------------| X2

 or

 e|---------------------------------------------------------------|
 B|---------------------------------------------------------------|
 G|-------2-------2-0--------0---------0----------0---------0-----|
 D|-----2---2---2------------------------0----0h2-------0h2---0---|
 A|---0-------0---------0h2--------0h2------3---------3-----------|
 E|-------------------3----------3--------------------------------| X2

 then continue w/ this

 (2nd time only)

 e|---3----------0h2---|
 B|--(3)-3-------(3)---|
 G|--------(0h)2-------|
 D|--------------------|
 A|--------------------|
 E|--------------------|

 chorus:

 e|--------------------------------------|
 B|--------------------------------------|
 G|------0-------2-0-------0-------0-----|
 D|----2---2---0---------------------0---|
 A|--------------------0h2-----0h2-------|
 E|--0-------2-------3-------3-----------| X3


http://www.stevefee.com
Suggest correction
What's this?
You can suggest a correction to this tab. Community and Mods will review your correction and vote to approve or reject it.
comments
We did not receive enough feedback on this tab! Please rate:
print report bad tab
1 2 3 4 5
1 comment total.
0 reply
kongyang9o 110 wrote on February 11 2008, 10:30 pm

cool tab. I actually just posted my version up too. I've got a vid on youtube, but it's different from the one I tabbed, you know just adding a little creativity into it. sounds good though, keep praising God. tell james and mark and them I said hi, or bye since they're moving, hahaha. God bless bro!

guest
You may want to rate the tab now too:
select rating
Please do not post tabs as comments. Select "correction" instead!