Oops, an error
Loading. Please wait.

What Else Can I Do Tab

version 2
version 2

Whole song

3,442 views 1 this week
no commentswrite comment
1 2 3 4 5
excellent!
x 1
add to favorites
launch autoscroll
font size
0
reset
how to read this tab
guitar tuner
Tab Pro tools
  • play this tab
  • loop segment
  • change instrument
  • show fretboard
  • metronome
Autoscroll
slow
fast
+/-
esc
set tempo
stop
Contributor
What else can I do?
Written by: Steve Fee
Tabbed by: Kongmeng Yang
Contacts: kong_yang9o@hotmail.com
Capo: 7

Chords Relative to Capo
Em - 022033
D/F# - 200233
C2 - 032033
G - 320033
Am7 - 002010


Intro:
e|------------------------------------------------------------------------|
B|------------3------------3--------------3-------------3-----------------|
G|------------0-----0h2----2---0----------0-------------0-----------------|
D|---------4-----0------0------------0h2-----2-----0h2--------------------|
A|--0h2---------------------------3---------------------------------------|
E|-------0----------2-----------------------------------------------------|

Repeat 3x

e|------------------------------------------------------------------------------------|
B|------------3------------3-------------3--------------3-------------3---------------|
G|------------0-----0h2----2---0---------0--------------0-------------0---------------|
D|---------4-----0------0------------0h2-----2-----0h2-----2-----0h2-----2------------|
A|--0h2---------------------------3--------------------------3------------------------|
E|-------0----------2-----------------------------------------------------------------|
-
Verse 1

Your love for me.....
e|------------------------------------------------------------------------|
B|------------3------------0--------------3-------------3-----------------|
G|------------0-----0h2----2---0----------0-------------0-----------------|
D|---------4-----0------0------------0h2-----2-----0h2--------------------|
A|--0h2---------------------------3---------------------------------------|
E|-------0----------2-----------------------------------------------------|

Is a matchless gift.....
e|------------------------------------------------------------------------|
B|--------1---------------3--------------3--------------3-----------------|
G|--------0-----0---------0--------------0--------------0-----------------|
D|-----2------0--------0-----0------0h2------------0h2--------------------|
A|--0--------------0h2-----------3----------------------------------------|
E|------------------------------------------------------------------------|

e|------------------------------------------------------------------------|
B|------------3------------0--------------3-------------3-----------------|
G|------------0-----0h2----2---0----------0-------------0-----------------|
D|---------4-----0------0------------0h2-----2-----0h2--------------------|
A|--0h2---------------------------3---------------------------------------|
E|-------0----------2-----------------------------------------------------|

Repeat 2x

Bridge

At the end of the day...
e|----------------------------------------------------------------------|
B|---------3--------------3-------------3--------------3----------------|
G|---------2-----2--------2-----0-------0-----0--------0-----0----------|
D|------0-----0--------0-----0-------2-----2--------2-----2-------------|
A|----------------------------------------------------------------------|
E|---2--------------2--------------0-------------0----------------------|


e|-------------------------------------0-----------0--------------------|
B|---------3--------------3------------3----3------3----3---------------|
G|---------0-----0--------0-----0----2----2------2----2-----------------|
D|------2-----2--------2-----2-----0-----------0------------------------|
A|---3--------------3---------------------------------------------------|
E|----------------------------------------------------------------------|

e|----------------------------------------------------------------------|
B|---------1--------------1--------------1--------------1---------------|
G|---------0-----0--------0-----0--------0-----0--------0-----0---------|
D|------2-----2--------2-----2--------2-----2--------2-----2------------|
A|---0--------------0--------------3--------------3---------------------|
E|----------------------------------------------------------------------|

e|-------0-----------0------------------|
B|-------3----3------3----3-------------|
G|-----2----2------2----2---------------|
D|---0-----------0-----------0----------|
A|--------------------------------------|
E|--------------------------------------|

Chorus

What else can I do…?
e|-----------------------------------------------------------------------|
B|---------3--------------3--------------3--------------3----------------|
G|---------0-----0--------2-----0--------0-----0--------0-----0----------|
D|------2-----2--------0-----0--------0-----0--------0-----0-------------|
A|---3-------------------------------------------------------------------|
E|------------------2--------------3--------------3----------------------|

Repeat

e|-----------------------------------------------------------------------------------|
B|------------0h1-------------------3---------------------3----------3---------------|
G|---------0-------0-------------0-----0-----0------------0----------0---------------|
D|------2-------------0-------0-----------0----------0h2-----2--0h2-----2------------|
A|---0-------------------0h2--------------------2h3----------------------------------|
E|-----------------------------------------------------------------------------------|
comments
We did not receive enough feedback on this tab! Please rate:
print report bad tab
1 2 3 4 5
I want to post or [tab]
guest
You may want to rate the tab now too:
select rating
Please do not post tabs as comments. Select "correction" instead!