Oops, an error
Loading. Please wait.

Tulane bass

299 views 1 this week
no commentswrite comment
1 2 3 4 5
3 more votes to show rating
add to favorites
×
Save as Personal and add changes to this tab that will be seen only by you. Learn more ›
×
You can save this tab as Personal to edit and correct it or add notes. All changes will be seen only by you. Learn more »
launch autoscroll
font size
0
reset
guitar tuner
edit
Autoscroll
slow
fast
+/-
esc
set tempo
stop
Author
Difficulty
Tulane
Released by The Steve Gibbons Band in 1977 this Chuck Berry cover
Reached number 12 the UK. Bass performance Trevor Burton (of The Move)
Tab by bass50611. Welcome to my tab not exact as original but very close.
The Verse and Chorus are much the same just with slight alterations on the
Root bass runs. What great cover version.
Comments is bass254@btinternet.com

PLAY CONTINUES WALKING BASS THROUGHOUT THE SONG

Intro:              Verse 1:
G|-----------------|------------------------------------------------|
D|-LEAD-GUITAR-----|----------------------------------------5-3-2-1-|
A|----START----10\-|-5-------5-------5-------5-3-2-0--2-3-4---------|
E|-----------------|--7-5-7---7-5-7---7-5-7----------3--------------|

G|------------------------------------------------|
D|----------------7-5-4---5-----------------------|
A|-5------5------------7---2-3-4-5-------5--------|
E|--7-5-7--7-5-7------------------7-5-7---2-3-4-5-|

Chorus 1:
G|---------------------------------------------------------------|
D|----------------------------------------5-3-2-1----------------|
A|-5-------5-------5-------5-3-2-0--2-3-4---------5-------5------|
E|--7-5-7---7-5-7---7-5-7----------3---------------7-5-7---2-3-4-|

G|---------------------------------|
D|-7-5-4---5-----------------------|
A|------7---2-3-4-5-------5--------|
E|-----------------7-5-7---2-3-4-5-|

Verse 2:
G|----------------------------------------------------------------------|
D|----------------------------------------5-3-2-1----------4-5-6-7-5-4--|
A|-5-------5-------5-------5-3-2-0--2-3-4---------5-------5-----------7-|
E|--7-5-7---7-5-7---7-5-7----------3---------------7-5-7----------------|

G|-------------------------|
D|-5-----------------------|
A|--2-3-4-5-------5--------|
E|---------7-5-7---2-3-4-5-|

Chorus 2:
G|---------------------------------------------------------------|
D|----------------------------------------5-3-2-1----------------|
A|-5-------5-------5-------5-3-2-0--2-3-4---------5-------5------|
E|--7-5-7---7-5-7---7-5-7----------3---------------7-5-7---2-3-4-|

G|----------------------------------|
D|----------------------------------|
A|-----------2-3-4-5-------5--------|
E|-5-3-2-0--3-------7-5-7---2-3-4-5-|

REPEAT ANY OF THE ABOVE, IN ANY ORDER, TO END THE SONG:
Suggest correction
Creating personal tab
Creating personal tab
You can edit any tab online and save it as your Personal.

You can edit, replace or remove any tab part or add personal notes – all changes will be seen only by you.

Personal tabs can be accessed anytime from any device, even offline.
Learn more »
Give kudos to tab author, rate the tab!
1 2 3 4 5
comments
print report bad tab
guest
You may want to rate the tab now too:
select rating
Wanna post a correction for this tab? Suggest correction