Oops, an error
Loading. Please wait.

Toma La Cruz Tab

82 views 6 this week
no commentswrite comment
1 2 3 4 5
3 more votes to show rating
add to favorites
launch autoscroll
font size
0
reset
how to read this tab
guitar tuner
Autoscroll
slow
fast
+/-
esc
set tempo
stop
Help us to improve Ultimate-Guitar.com Take our survey!
×
Hola a todos...
Bueno aqui les dejo la tablatura de esta cancion...
suena identica si la practican bien...es una alabanza que
me gusta mucho en lo personal y valla que me costo bastante
sacarla :D..espero que les guste.

Bendiciones.

Introduccion

E+-------------------0------------------------------------2-----2-
B¦-----------3-----------3------------------------3---------------
G¦-------2-------2-----------2---------------2--------2---------4-
D¦---0----------------------------------0-------------------------
A¦--------------------------------------------------------------2-
E+----------------------------------------------------------------
                                En la Cruz con Cristo estoy,


E-----3---------3----3--2--0---------------------------------------
B------------0----------------0-------------3-----------2----------
G---------0----------4--2--0----------------2-----------2----------
D-----2--------------------------------0-------------2-------------
A-------------------------------------------------0----------------
E------------------------------------3-----------------------------
   y  ya  no  vivo  yo,             Cristo ahora  vive  en


E---2--------------7----9----|-------10--------------10/12--10---7-
B---3-----3--------8--8h10---|-------10------10------------------7-
G------2-----2---------------|-----------11-----11-----------------
D---0------------------------|-------0-----------------------------
A----------------------------|-----------------------------------6-
E----------------------------|-------------------------------------
  MI.                         En LA Cruz con Cristo estoy,


E-------------10----------------------------0----------------------
B--------7/8-------8--7--5---------------3-----2-------------------
G---------------------------4---------2----------------------------
D------9-----------------------------------------------------------
A----------------------------------0-------------------------------
E---0--------------------------------------------------------------
y  ya  no  vivo  yo,             Cristo  ahora  vive  en


E------------------0------------|
B-----------3-----------3-------|
G-------2-------2-----------2---| Intro x2
D---0---------------------------|
A-------------------------------|
E-------------------------------|
   MI

Pre Estrofa : D - A - G - D

Estrofas:

           A1                             A2
E ----------------------|    E ---------------------------|
B¦------------2h2-2-----|    B---0-2--2h3---2h3-3h5--2----|
G¦---------2------------|    G------------2---------------|
D¦------2---------------|    D----------------------------|
A¦---0------------------|    A----------------------------|
E ----------------------|    E ---------------------------|

         D        A         G  D
Toma la Cruz, la cruz de Cristo,
            Bm   F#m   G      A1
Un precio habrá: Todo dar a Dios.
        Bm        G             D
Tu Sacrificio, verás, es muy pequeño
   G          D          G              A   A2
Al lado de riquezas que Cristo nos guardo.

          D       A       G  D
Toma el amor, la cruz requiere,
         Bm     F#m      G       A
Asir a Dios, el cual por ti sufrió;
     Bm       G           D
Recibirás la compasión de Cristo,
G              D        G          A     G
Él es quien moldea tu corazón a Dios.

Bm        D         G       D
Preciosa Cruz descansamos en ti,
      Em     A     G    D   A
Dios haznos más valientes
Bm        D         G           D
Para enfrentar la vergüenza y el mal,
       Em      E     Bm A    A1
Que a hombros tú cargaste.

           D                 G   D
Toma el vivir que hay en la muerte,
         Bm   F#m      G     A
Pisando allí donde por ti pisó;
        Bm     G             D
Termina el Calvario en una tumba
   G          D        G           A    A1
Vacía y por tanto, tu cruz soporta ya.

         D              G  D            G    A    D1
Toma la Cruz, toma la cruz,  La Cruz de Cri- i - isto.


Punteo Final

                               D1
E+-------------------2---2--7--5---------------------------------
B¦-----------3--------------------7h8--7--5--7-7h8---------------
G¦-------2-------2-----------------------------------------------
D¦---0-----------------------------------------------------------
A¦---------------------------------------------------------------
E+---------------------------------------------------------------

 -------------------------x-----|
 --------7--7h8--8h10-----3-----|
 -----5-------------------2-----|
 --4----------------------0-----|
 -------------------------x-----|
 -------------------------x-----|
Suggest correction
Give kudos to tab author, rate the tab!
1 2 3 4 5
comments
print report bad tab
guest
You may want to rate the tab now too:
select rating
Wanna post a correction for this tab? Suggest correction