Oops, an error
Loading. Please wait.

Make Me Smile Come Up And See Me Bass Tab

version 1
version 1

Whole song

Interactive

10,891 views 39 this week
1 commentread comment
1 2 3 4 5
accurate
x 3
add to favorites
launch autoscroll
font size
0
reset
guitar tuner
Autoscroll
slow
fast
+/-
esc
set tempo
stop
Help us to improve Ultimate-Guitar.com Take our survey!
×
Author
Difficulty
intermediate
-----------------------------------------------------------------------------
			     come Up And See Me - Steve Harley
-----------------------------------------------------------------------------

Tabbed By : Paul Anders
e-mail: madpanderfish@yahoo.co.uk

Tuning: Standard

Intro: I dunno look on other sites, but the rest of this is correct

Verse:

(You've Done it all....)


  F                  C                 G                   F
G|---------2-3-2----|-----------------|-------------------|---------2-3-2---|
D|--3----3-------3--|-----------------|----------------2--|--3----3-------3-|
A|------------------|--3-----3-3----3-|----------2-3-5----|-----------------|
E|------------------|-----------------|--3-----3----------|-----------------|

  C                 G                G               G
G|-----------------|----------------|---------------|-----------------|
D|-----------------|----------------|---------------|---------------2-|
A|--3-----3-3----3-|----------------|---------------|--------2-3-5----|
E|-----------------|--3----3-3----3-|-3----3-3----3-|-3----3----------|

  F                  C                 G                   F
G|---------2-3-2----|-----------------|-------------------|---------2-3-2---|
D|--3----3-------3--|-----------------|----------------2--|--3----3-------3-|
A|------------------|--3-----3-3----3-|----------2-3-5----|-----------------|
E|------------------|-----------------|--3-----3----------|-----------------|

  C                 G                G               G
G|-----------------|----------------|---------------|----------------|
D|-----------------|----------------|---------------|----------------|
A|--3-----3-3----3-|----------------|---------------|----------------|
E|-----------------|--3----3-3----3-|-3----3-3----3-|-3----3-3----3--|

Pre-chorus

(blue eyes, blue eyes....)

  F                 C                F                C
G|---------2-3-2---|----------------|--------2-3-2---|----------------|
D|--3----3-------3-|--------0-2-0---|-3----3-------3-|--------0-2-0---|
A|-----------------|-3----3-------3-|----------------|-3----3-------3-|
E|-----------------|----------------|----------------|----------------|

  G               G
G|---------------|----------------|
D|---------------|----------------|
A|---------------|----------2-3-4-|
E|-3----3-3----3-|-3----3-3-------|

Chorus

(Come Up and See Me.....)

  Dm                F                C                G
G|-----------------|----------------|----------------|----------------|
D|---------7-------|--------5-7-----|----------------|----------------|
A|--5----5---8-5-7-|-8----8-----8-5-|--------5-7-----|----------2-3-4-|
E|-----------------|----------------|-8----8-----8-5-|-3----3-3-------|

  Dm                F                C                G
G|-----------------|----------------|----------------|-----------------|
D|---------7-------|--------5-7-----|----------------|-----------------|
A|--5----5---8-5-7-|-8----8-----8-5-|--------5-7-----|-----------------|
E|-----------------|----------------|-8----8-----8-5-|-3-3-3-3-3-3-3-3-|

Solo: (the guitar part is definitely available on other tabs but be careful because I 
know about 3 of them are wrong)

  F                Em               F              Am
G|----------------|----------------|--------------|----------------|
D|----------------|----------------|--------------|----------------|
A|-8----8---8---8-|-7----7---7---7-|-8----8--8--8-|--------------5-|
E|--------8---8---|--------7---7---|--------8--8--|-5----5-5-7-9---|

  Em               Em                G
G|----------------|-----------------|------------------------|
D|----------------|-----------------|------------------------|
A|-7----7---7---7-|-7---7---7---7---|-10-10-10---10-10-10----|
E|--------7---7---|---7---7---7---7-|----------10---------10-|


G|-------------------------|----------------------|----------------------|
D|-------------------------|----------------------|----------------------|
A|-10-10-10----10-10-10----|----------12----------|----------10-12-------|
E|----------10----------10-|-10----10----13-10-12-|-13----13-------13-10-|

G|------------------|----------------|----------------|----------------|
D|------------------|----------------|--------7-------|--------5-7-----|
A|----------------0-|----------2-3-4-|-5----5---8-5-7-|-8----8-----8-5-|
E|-8----8-10-12-8---|-3----3-3-------|----------------|----------------|


G|----------------|-----------------|
D|----------------|-----------------|
A|--------5-7-----|-----------------|
E|-8----8-----8-5-|-8-8-8-8-8-8-8-8-|

The order of the song is the hard bit in my opinion and there are many different 
variations. this one follows the song until the fade out where most cover bands stop:

Intro
Verse 1
Pre-chorus 1
Chorus
Verse 2
Pre-chorus 2
Chorus
Solo
Verse 3
Pre-Chorus 3
Chorus
Pre-Chorus 4
Chorus
Fade out chorus (although most cover bands stop at the end of the 4th chorus)

Hopefully you have found this useful.
Its my first tab to be uploaded to this site although i have done other and should be 
uploading them soon.
If You think ANYTHING is wrong email me or comment about it.
I would not be surprised is there was something wrong i am only 14 and am a self taught bassist,
although i am a good guitarist and the two are effectively the same.
anyway, have fun playing and PLEASE RATE!!!!!!

| /  slide up
| \  slide down
| h  hammer-on
| p  pull-off
| ~  vibrato
| +  harmonic
| x  Mute note
=============================================================================
Suggest correction
What's this?
You can suggest a correction to this tab. Community and Mods will review your correction and vote to approve or reject it.
comments
We did not receive enough feedback on this tab! Please rate:
print report bad tab
1 2 3 4 5
1 comment total.
0 reply
Wobbly143 11 wrote on December 11 2013, 10:38 am

Great tab just missing the intro.
G Mixolydian
G-----------------2-4-5-4----------------
D-----------2-3-5---------5--5-5-3-5--5-5
A-----2-3-5------------------------------
E-3-5------------------------------------

guest
You may want to rate the tab now too:
select rating
Please do not post tabs as comments. Select "correction" instead!