Oops, an error
Loading. Please wait.

Make Me Smile Come Up And See Me Tab

version 1
version 1

Solo

Whole song

Interactive

15,114 views 27 this week
no commentswrite comment
1 2 3 4 5
1 last vote to show rating
add to favorites
launch autoscroll
font size
0
reset
how to read this tab
guitar tuner
Autoscroll
slow
fast
+/-
esc
set tempo
stop
Help us to improve Ultimate-Guitar.com Take our survey!
×
Author
By Kikinho

|----------------|----------------|--------------|-----------------|
|----------------|----------------|--------------|-----------------|
|----------------|----------------|--------------|-----------------|
|--------5s7-5-7-|-7-5-7-7--5-7-5-|-5--5-3-2-3-5-|-3-2-0-3---2-0-0-|
|----------------|----------------|--------------|-----------------|
|----------------|----------------|--------------|-----------------|

        
|--------|-----------|-----------------|------------10s12-12-|--12-13-15--|
|--------|-----------|-------8-10-10---|-10-8-10-8-----------|------------|
|--------|-----------|-7-7s9-----------|---------------------|------------|
|0-0-----|-------5-5-|-----------------|---------------------|------------|
|----3-3-|---5s7-----|-----------------|---------------------|------------|
|--------|-----------|-----------------|---------------------|------------|


 
|-15-15-15-15-15-15-15-15-15-15-15-15-15-15-15-13-13-|
|----------------------------------------------------|
|----------------------------------------------------|
|----------------------------------------------------|
|----------------------------------------------------|
|----------------------------------------------------|


  
|-13-13-12--------------|---------------------------------|
|--------------13--12---|---------------------------------|
|-----------------------|-12-12-12-12-12-12-12-10---9-10--|
|-----------------------|---------------------------------|
|-----------------------|---------------------------------|
|-----------------------|---------------------------------|



|----------------------------|-13---12---10-8-7----5-7-|-5----------------|
|----------------------------|-------------------------|-----8---6-5-6-8--|
|-12-10-9--------------------|-------------------------|------------------|
|----------10-10-10s12-12----|-------------------------|------------------|
|----------------------------|-------------------------|------------------|
|----------------------------|-------------------------|------------------|


|-------------------------------|------------------|-------------|
|-8-8-8-8-8-8-8-8-8-8-8-8-6-5---|------------------|-------------|
|-----------------------------7-|-7------4-5-4-5---|-5-4---------|
|-------------------------------|------------------|------5------|
|-------------------------------|------------------|-------------|
|-------------------------------|------------------|-------------|

If there is some mistake, don't hesitate to tell me.
I hope you enjoy with this solo ;)
Suggest correction
Give kudos to tab author, rate the tab!
1 2 3 4 5
comments
print report bad tab
guest
You may want to rate the tab now too:
select rating
Wanna post a correction for this tab? Suggest correction