Oops, an error
Loading. Please wait.

Make Me Smile Come Up And See Me Tab

version 1
version 1

Whole song

Interactive

25,924 views 12 this week
1 commentread comment
1 2 3 4 5
x 9
add to favorites
launch autoscroll
font size
0
reset
how to read this tab
guitar tuner
Autoscroll
slow
fast
+/-
esc
set tempo
stop
Help us to improve Ultimate-Guitar.com Take our survey!
×
Author
Difficulty
intermediate
[Intro]
(Guitar 1)
e|----------------------------------------|
B|--------------------0-1-0---------------|
G|----------------0-2-------0-0-0---0---0-|
D|----------0-2-3-----------------3---3---|
A|----0-2-3-------------------------------|
E|--3-------------------------------------|

[Guitar 2]
e|----------------------0-----------------|
B|----------------0-1-3---3-0-0---1-0---0-|
G|------------0-2---------------2-----2---|
D|------0-2-3-----------------------------|
A|--2-3-----------------------------------|
E|----------------------------------------|

[Verse 1] 
N.C. F C G F 
You've done it all, you've broken every code 
C G 
And pulled the  Rebel to the  floor 
F C G F 
You've spoilt the  game, no  matter what you sa y     
C G 
For only  metal, what a  bore 
F C 
Blue eyes,  blue eyes 
F C G 
How can you  tell so many  lies? 

[Chorus]
Dm F C G 
Come up and  see me, make me  smile      
Dm F C G 
I'll do what you  want, running  wild      

[Verse 2 ]
N.C. F C G F 
There's nothing left, all gone and run away 
  C G 
Maybe you'll  tarry for a  while? 
  F C G F 
It's just a  test, a  game for us to  play     
  C G 
Win or  lose, it's hard to  smile 
F C 
Resist,  resist, 
F C G 
It's from yourse lf you have to  hide 

[Chorus]
Dm F C G 
Come up and  see me, make me  smile      
Dm F C G 
I'll do what you  want, running  wild      

[Solo]
e|-------------------------------------------------------|
B|-------------------------------------------------------|
G|-------------------------------------------------------|
D|--5/7-5-7-7-5-7-7-5h7p5--5-------5---------------------|
A|---------------------------8-7-8---8-7-5-8-7-5-5-5-3-3-|
E|-------------------------------------------------------|

e|-----------------------------------10/12-12-12--12-13-15-|
B|------------------8-10-10-8h10-8__-----------------------|
G|------5-5-7-7-7/9----------------------------------------|
D|--5/7----------------------------------------------------|
A|---------------------------------------------------------|
E|---------------------------------------------------------|

e|--13-13-13-12---------------------------------------------------------------|
B|--------------13-13--12-10--------------------------------------------------|
G|---------------------------12--12-12-12-10-9----9-10-12-10-9----------------|
D|---------------------------------------------12--------------12-10-10-12-12-|
A|----------------------------------------------------------------------------|
E|----------------------------------------------------------------------------|

e|--13-12-10----------------------------------------------------------|
B|-----------13-12-10h12p10-10----------------------------------------|
G|------------------------------12-10-9-10-12/\\/\\/\\/\\/\\/\\/-10-9-|
D|--------------------------------------------------------------12-12-|
A|--------------------------------------------------------------------|
E|--------------------------------------------------------------------|

e|----------------------|
B|----------------------|
G|----------------------|
D|--10p9-10-10-9--------|
A|---------------10____-|
E|----------------------|

[Solo G2]
F   Em  F   Am   Em   Em   G    G
Dm  F   C   G    Dm   F    C    G

[Verse 3]
N.C. F C G F 
There ain't no more, you've taken everything 
  C G 
From my be lief in Mother  Earth 
  F C G F 
Can you  ignore my  faith in every thing     
  C G 
Cos I know what  faith is and what it's  worth 
F C 
Away,  away 
F C G 
And don't say  maybe you'll  try 

[Chorus] 
Dm F C G 
Come up and  see me, make me  smile      
Dm F C G 
I'll do what you  want, running  wild      

[Fill] 
F C 
ooh- ooh la-la-la 
F C 
ooh- ooh la-la-la 
G 
Oooooooooaaaaaah 

[Chorus] 
Dm F C G 
Come up and  see me, make me  smile      
Dm F C G 
I'll do what you  want, running  wild
Suggest correction
comments
print report bad tab
1 comment total.
-1 reply
maxpowweer 618 Jan 20, 2013 12:57 PM

It's annoying when it says its a tab yet they're just chords. If its just the chords, should list it as so.

guest
You may want to rate the tab now too:
select rating
Wanna post a correction for this tab? Suggest correction