Oops, an error
Loading. Please wait.

Make Me Smile Tab

version 3
version 3

Whole song

Interactive

373 views 21 this week
no commentswrite comment
1 2 3 4 5
2 more votes to show rating
add to favorites
×
Save as Personal and add changes to this tab that will be seen only by you. Learn more ›
×
You can save this tab as Personal to edit and correct it or add notes. All changes will be seen only by you. Learn more »
save as personal
new!
launch autoscroll
font size
0
reset
how to read this tab
guitar tuner
Autoscroll
slow
fast
+/-
esc
set tempo
stop
Author
Difficulty
intermediate
MAKE ME SMILE (COME UP AND SEE ME)

As recorded by Steve Harley & Cockney Rebel
(From the 1975 Album THE BEST YEARS OF OUR LIVES)

Words and Music by Steve Harley

Transcribed by Slowhand


Gtr I (E A D G B E) - 'Steve Harley - Acoustic Guitar'
Gtr II (E A D G B E) - 'Jim Cregan - Acoustic Guitar'


 Intro
  Q=143
  N.C.
 4/4
  Gtr I (Ac. Gtr.)
  E E E E E E E E   E E E E +Q   E E   E E E E Q  E E
|-----------------|-0-1-3-1-(1)------|----------------|
|-----------0-1-3-|--------------3---|--------------3-|
|-------0-2-------|------------------|-----5-4----5---|
|-0-2-3-----------|------------------|-3-5------------|
|-----------------|------------------|----------------|
|-----------------|------------------|----------------|
|
| Gtr II (Ac. Gtr.)
| E E E E E E E E   E E E E +Q   E E   E E E E Q  E E
|-----------------|-----0------------|----------------|
|-----------------|-1-3---3-(3)------|-0-----0----1-0-|
|-----------0-2-4-|--------------4---|-0-0-2-0----0-0-|
|-----0-2-3-------|------------------|---0-3------2-0-|
|-2-3-------------|------------------|----------------|
|-----------------|------------------|----------------|


              1st - 3rd Verses
           $
               F                   C                   G
  W            E E E E +E  E E E   E E E E +E  E E E   E E E E +E  E E    E
|----------||--1-1-1-1-(1)-1-1-1-|-0-0-0-0-(0)-0-0-0-|-3-3-3-3-(3)-3-3----3--|
|----------||o-1-1-1-1-(1)-1-1-1-|-1-1-1-1-(1)-1-1-1-|-3-3-3-3-(3)-3-3----3--|
|----------||--2-2-2-2-(2)-2-2-2-|-0-0-0-0-(0)-0-0-0-|-4-4-4-4-(4)-4-4----4--|
|----------||--3-3-3-3-(3)-3-3-3-|-2-2-2-2-(2)-2-2-2-|-5-5-5-5-(5)-5-5----5--|
|----------||o-3-3-3-3-(3)-3-3-3-|-3-3-3-3-(3)-3-3-3-|-5-5-5-5-(5)-5-5----5--|
|----------||--1-1-1-1-(1)-1-1-1-|-------------------|-3-3-3-3-(3)-3-3----3--|
|
| W            E E E E +E  E E E   E E E E +E  E E E   E E E E +E  E S E.
|----------||--5-7-8-8-(8)-5-----|-------------------|-----------------------|
|----------||o---------------8-6-|-5-6-8-----------5-|-----------------------|
|----------||--------------------|-------5-(5)-5-7---|-4-5-7-------4-5-7-----|
|----------||--------------------|-------------------|-------5-(5)-----------|
|----------||o-------------------|-------------------|-----------------------|
|----------||--------------------|-------------------|-----------------------|


  F                   C
  E E E E +E  E E E   E E E E +E  E E E
|-1-1-1-1-(1)-1-1-1-|-0-0-0-0-(0)-0-0-0-|
|-1-1-1-1-(1)-1-1-1-|-1-1-1-1-(1)-1-1-1-|
|-2-2-2-2-(2)-2-2-2-|-0-0-0-0-(0)-0-0-0-|
|-3-3-3-3-(3)-3-3-3-|-2-2-2-2-(2)-2-2-2-|
|-3-3-3-3-(3)-3-3-3-|-3-3-3-3-(3)-3-3-3-|
|-1-1-1-1-(1)-1-1-1-|-------------------|
|
| H        E  E Q     H       +E  E E E
|-------------------|-------------------|
|-------------------|-------------5-----|
|-5-----------4-5---|-0-------(0)---7-5-|
|----------7--------|-------------------|
|-------------------|-------------------|
|-------------------|-------------------|


  G
  E  E E E E    E  E  E   E  E E E E    E E E
|-3--3-x-3-3----3--x--3-|-3--3-x-3-3----3-x-3-|
|-3--3-x-3-3----3--x--3-|-3--3-x-3-3----3-x-3-|
|-4--4-x-4-4----4--x--4-|-4--4-x-4-4----4-x-4-|
|-5--5-x-5-5----5--x--5-|-5--5-x-5-5----5-x-5-|
|-5--5-x-5-5----5--x--5-|-5--5-x-5-5----5-x-5-|
|-3--3-x-3-3----3--x--3-|-3--3-x-3-3----3-x-3-|
|
| Q.     E S E.   +E  E   Q.     E S E.   E E
|-7------7---7----(7)-7-|-7------7---7----7---|
|-8------8-8----------8-|-8------8-8------8---|
|-7---------------------|-7--------7----------|
|-----------------------|---------------------|
|-----------------------|---------------------|
|-----------------------|---------------------|


                          F
  E E   E   E +E  E E E   E E  E  E   +E  E E E
|-3-3---3---3-(3)-3-3-3-|-1-1--1--1---(1)-1-1-1-|
|-3-3---3---3-(3)-3-3-3-|-1-1--1--1---(1)-1-1-1-|
|-4-4---4---4-(4)-4-4-4-|-2-2--2--2---(2)-2-2-2-|
|-5-5---5---5-(5)-5-5-5-|-3-3--3--3---(3)-3-3-3-|
|-5-5---5---5-(5)-5-5-5-|-3-3--3--3---(3)-3-3-3-|
|-3-3---3---3-(3)-3-3-3-|-1-1--1--1---(1)-1-1-1-|
|
| E S S S S E  E  E E E   E E +E  S S +E  E E E
|-7---------------------|-----------------------|
|-8------------8--------|-----------------------|
|-7---4---4-7-----7-5-4-|---5-(5)---------5-4---|
|---0---5---------------|-7-------5-7-(7)-----7-|
|-----------------------|-----------------------|
|-----------------------|-----------------------|


  C                       G
  E E  E  E +E  E   E E   E E  E  E +E  E E E
|-0-0--0--0-(0)-0---0-0-|-3-3--3--3-(3)-3-3-3-|
|-1-1--1--1-(1)-1---1-1-|-3-3--3--3-(3)-3-3-3-|
|-0-0--0--0-(0)-0---0-0-|-4-4--4--4-(4)-4-4-4-|
|-2-2--2--2-(2)-2---2-2-|-5-5--5--5-(5)-5-5-5-|
|-3-3--3--3-(3)-3---3-3-|-5-5--5--5-(5)-5-5-5-|
|-----------------------|-3-3--3--3-(3)-3-3-3-|
|
| E E +E  E +E  S S E E   E E +E  E +E  E E E
|-----------------------|---------------------|
|---5-(5)---------5-----|---------------------|
|---------------7-----5-|-4-7-(7)-4-(4)-7-5-4-|
|-5-------5-(5)---------|---------------------|
|-----------------------|---------------------|
|-----------------------|---------------------|


  F                   C                    G
  E E E E +E  E E E   E  E E E +E  E E E   E E E E E E E E
|-1-1-1-1-(1)-1-1-1-|-0--0-0-0-(0)-0-0-0-|-3-3-x-3-3-3-x-3-|
|-1-1-1-1-(1)-1-1-1-|-1--1-1-1-(1)-1-1-1-|-3-3-x-3-3-3-x-3-|
|-2-2-2-2-(2)-2-2-2-|-0--0-0-0-(0)-0-0-0-|-4-4-x-4-4-4-x-4-|
|-3-3-3-3-(3)-3-3-3-|-2--2-2-2-(2)-2-2-2-|-5-5-x-5-5-5-x-5-|
|-3-3-3-3-(3)-3-3-3-|-3--3-3-3-(3)-3-3-3-|-5-5-x-5-5-5-x-5-|
|-1-1-1-1-(1)-1-1-1-|--------------------|-3-3-x-3-3-3-x-3-|
|
| E Q   E +E  E E E   Q.     E  E  E E E   E E E E E E E E
|-------------------|--------3-----------|---3---3---3---3-|
|-------------1---1-|--------5--5--------|---3---3---3---3-|
|-5-2-----------2---|-0------------5-4-2-|-4---------------|
|-------3-(3)-------|--------------------|-----------------|
|-------------------|--------------------|-----------------|
|-------------------|--------------------|-----------------|


                        Pre-Chorus
                         F
   E  E E E E E E S S    E E E E +E  E E E
|--3--x-3-x-3-x-3-3-3-||-1-1-1-1-(1)-1-1-1-|
|--3--x-3-x-3-x-3-3-3-||-1-1-1-1-(1)-1-1-1-|
|--4--x-4-x-4-x-4-4-4-||-2-2-2-2-(2)-2-2-2-|
|--5--x-5-x-5-x-5-5-5-||-3-3-3-3-(3)-3-3-3-|
|--5--x-5-x-5-x-5-5-5-||-3-3-3-3-(3)-3-3-3-|
|--3--x-3-x-3-x-3-3-3-||-1-1-1-1-(1)-1-1-1-|
|
| +E  E E E E E E E      W
|-(3)-7---7---7---7---||-------------------|
|-(3)-8---8---8---8---||-------------------|
|---------------------||-------------------|
|---------------------||-------------------|
|---------------------||-------------------|
|---------------------||-------------------|


  C                   F
  E E E E +E  E E E   E E E E +E  E E E
|-0-0-0-0-(0)-0-0-0-|-1-1-1-1-(1)-1-1-1--|
|-1-1-1-1-(1)-1-1-1-|-1-1-1-1-(1)-1-1-1--|
|-0-0-0-0-(0)-0-0-0-|-2-2-2-2-(2)-2-2-2--|
|-2-2-2-2-(2)-2-2-2-|-3-3-3-3-(3)-3-3-3--|
|-3-3-3-3-(3)-3-3-3-|-3-3-3-3-(3)-3-3-3--|
|-------------------|-1-1-1-1-(1)-1-1-1--|
|
| W                   W
|-------------------|--------------------|
|-------------------|--------------------|
|-------------------|--------------------|
|-------------------|--------------------|
|-------------------|--------------------|
|-------------------|--------------------|


                                                         Chorus
  C                   G                                   Dm
  E E E E +E  E E E   E E E E E E E E   E E E E E E Q     E E E E E E E E
|-0-0-0-0-(0)-0-0-0-|-3-3-x-3-3-3-x-3-|-3-3-3-3-3-3-3--||-1-1-x-1-1-1-x-1-|
|-1-1-1-1-(1)-1-1-1-|-3-3-x-3-3-3-x-3-|-3-3-3-3-3-3-3--||-3-3-x-3-3-3-x-3-|
|-0-0-0-0-(0)-0-0-0-|-4-4-x-4-4-4-x-4-|-4-4-4-4-4-4-4--||-2-2-x-2-2-2-x-2-|
|-2-2-2-2-(2)-2-2-2-|-5-5-x-5-5-5-x-5-|-5-5-5-5-5-5-5--||-0-0-x-0-0-0-x-0-|
|-3-3-3-3-(3)-3-3-3-|-5-5-x-5-5-5-x-5-|-5-5-5-5-5-5-5--||-----------------|
|-------------------|-3-3-x-3-3-3-x-3-|-3-3-3-3-3-3-3--||-----------------|
|
| W                   W                 W                 E E E E E E E E
|-------------------|-----------------|----------------||-1-1-x-1-1-1-x-1-|
|-------------------|-----------------|----------------||-3-3-x-3-3-3-x-3-|
|-------------------|-----------------|----------------||-2---x---2---x---|
|-------------------|-----------------|----------------||-----------------|
|-------------------|-----------------|----------------||-----------------|
|-------------------|-----------------|----------------||-----------------|


  F                   C                 G
  E E E E  E  E E E   E E E E E E E E   E E E E +E  E E E
|-1-1-x-1--1--1-x-1-|-0-0-x-0-0-0-x-0-|-3-3-3-3-(3)-3-3-3-|
|-1-1-x-1--1--1-x-1-|-1-1-x-1-1-1-x-1-|-3-3-3-3-(3)-3-3-3-|
|-2-2-x-2--2--2-x-2-|-0-0-x-0-0-0-x-0-|-4-4-4-4-(4)-4-4-4-|
|-3-3-x-3--3--3-x-3-|-2-2-x-2-2-2-x-2-|-5-5-5-5-(5)-5-5-5-|
|-3-3-x-3--3--3-x-3-|-3-3-x-3-3-3-x-3-|-5-5-5-5-(5)-5-5-5-|
|-1-1-x-1--1--1-x-1-|-----------------|-3-3-3-3-(3)-3-3-3-|
|
| E E E E +E  E E E   E E E E E E E E   E E E E +E  E E E
|-1-1-x-1-(1)-1-0---|-3-3-x-3-3-3-x-3-|-3-3-x-3-(3)-3-1-0-|
|-1-1-x-1-(1)-1-1-3-|-5-5-x-5-5-5-x-5-|-3-3-x-3-(3)-3-----|
|-2---x-2-(2)---2---|-5---x---5---x---|-4---x-4-(4)---2-0-|
|-------------------|-----------------|-------------------|
|-------------------|-----------------|-------------------|
|-------------------|-----------------|-------------------|


  Dm                F                   C
  E E E E E E E E   E E E E  E  E E E   E E E E E E E E
|-1-1-x-1-1-1-x-1-|-1-1-x-1--1--1-x-1-|-0-0-x-0-0-0-x-0-|
|-3-3-x-3-3-3-x-3-|-1-1-x-1--1--1-x-1-|-1-1-x-1-1-1-x-1-|
|-2-2-x-2-2-2-x-2-|-2-2-x-2--2--2-x-2-|-0-0-x-0-0-0-x-0-|
|-0-0-x-0-0-0-x-0-|-3-3-x-3--3--3-x-3-|-2-2-x-2-2-2-x-2-|
|-----------------|-3-3-x-3--3--3-x-3-|-3-3-x-3-3-3-x-3-|
|-----------------|-1-1-x-1--1--1-x-1-|-----------------|
|
| E E E E E E E E   E E E E +E  E E E   E E E E E E E E
|-1-1-x-1-1-1-x-1-|-1-1-x-1-(1)-1-0---|-3-3-x-3-3-3-x-3-|
|-3-3-x-3-3-3-x-3-|-1-1-x-1-(1)-1-1-3-|-5-5-x-5-5-5-x-5-|
|-2---x---2---x---|-2---x-2-(2)---2---|-5---x---5---x---|
|-----------------|-------------------|-----------------|
|-----------------|-------------------|-----------------|
|-----------------|-------------------|-----------------|


                    1.
           To Coda
  G
  E E E E E E E E    E E Q  H      W
|-3---3---3---3----|-3-----------|-------||
|-3---3---3---3----|-3-----------|------o||
|-4-4-4-4-4-4-4-4--|-4-----------|-------||
|-5-5-5-5-5-5-5-5--|-5-----------|-------||
|-5-5-5-5-5-5-5-5--|-5-----------|------o||
|-3-3-3-3-3-3-3-3--|-3-----------|-------||
|
| E E E E E E E E    E E Q  H      W
|-7-7-x-7-7-7-x-7--|-7-----------|-------||
|-8-8-x-8-8-8-x-8--|-8-----------|------o||
|-7---x---7---x----|-7-----------|-------||
|------------------|-------------|-------||
|------------------|-------------|------o||
|------------------|-------------|-------||


                Guitar Solo
  2.
                 N.C.           F
                2/4            4/4
  E E Q  H         W            E  E    E  E +E  E E E
|-3-----------||--------------|-1--1----1--1-(1)-1-1-1-----|
|-3-----------||--------------|-1--1----1--1-(1)-1-1-1-----|
|-4-----------||--------------|-2--2----2--2-(2)-2-2-2-----|
|-5-----------||--------------|-3--3----3--3-(3)-3-3-3-----|
|-5-----------||--------------|-3--3----3--3-(3)-3-3-3-----|
|-3-----------||--------------|-1--1----1--1-(1)-1-1-1-----|
|
|                                                    |-3-|
| E E Q  H       a E. S +E  E   E.   S +E  E  Q.     S S S
|-7-----------||--------------|----------------------------|
|-8-----------||--------------|----------------------------|
|-7-----------||--------------|----------------------------|
|-------------||-5s7--5-(5)-7-|-7----5-(5)-7--7------5h7p5-|
|-------------||--------------|----------------------------|
|-------------||--------------|----------------------------|


  Em                          F                          Am
  E E E E +E    E   E   E     E   E   E  E   +E  E E E   E E E E +E  E E. S
|-0-0-0-0-(0)---0---0---0---|-1---1---1--1---(1)-1-1-1-|-0-0-0-0-(0)-0-0--0-|
|-0-0-0-0-(0)---0---0---0---|-1---1---1--1---(1)-1-1-1-|-1-1-1-1-(1)-1-1--1-|
|-0-0-0-0-(0)---0---0---0---|-2---2---2--2---(2)-2-2-2-|-2-2-2-2-(2)-2-2--2-|
|-2-2-2-2-(2)---2---2---2---|-3---3---3--3---(3)-3-3-3-|-2-2-2-2-(2)-2-2--2-|
|-2-2-2-2-(2)---2---2---2---|-3---3---3--3---(3)-3-3-3-|-0-0-0-0-(0)-0-0--0-|
|-0-0-0-0-(0)---0---0---0---|-1---1---1--1---(1)-1-1-1-|--------------------|
|
|          |--3---| |--3--|   |--3--|
| H        E  E   E E E   E   E E   E E.   S +E  E E E   Q   E E +Q    Q
|---------------------------|--------------------------|--------------------|
|---------------------------|--------------------------|--------------------|
|---------------------------|--------------------------|--------------------|
|-5-----------5---3-2-3---5-|-3-2-----3----2-(2)-------|--------------------|
|---------------------------|-------5------------5-5-5-|-5---3-3-(3)--------|
|---------------------------|--------------------------|--------------------|


  Em
  E E E E +E  E E E    E  E E E   +E  E    E   E
|-0-0-0-0-(0)-0-0-0-|--0--0-0-0---(0)-0----0---0-|
|-0-0-0-0-(0)-0-0-0-|--0--0-0-0---(0)-0----0---0-|
|-0-0-0-0-(0)-0-0-0-|--0--0-0-0---(0)-0----0---0-|
|-2-2-2-2-(2)-2-2-2-|--2--2-2-2---(2)-2----2---2-|
|-2-2-2-2-(2)-2-2-2-|--2--2-2-2---(2)-2----2---2-|
|-0-0-0-0-(0)-0-0-0-|--0--0-0-0---(0)-0----0---0-|
|
| H        Q    E E   +E  E Q   a  E.   S +E   E
|-------------------|----------------------------|
|-------------------|-------------------8-(8)-10-|
|---------------5-5-|-(5)-7-7---7s=9-------------|
|---------/7--------|----------------------------|
|-------------------|----------------------------|
|-------------------|----------------------------|


  G7
   E  E E E      E     E   E   E
|--1--1-x-1------1-----1---x---1--|
|--0--0-x-0------0-----0---x---0--|
|--0--0-x-0------0-----0---x---0--|
|--0--0-x-0------0-----0---x---0--|
|--2--2-x-2------2-----2---x---2--|
|--3--3-x-3------3-----3---x---3--|
|
|         |-3--|
|  Q.     S  S S E  a  E  +E   E
|------------------10s12-(12)-12--|
|-10------8h10p8-8----------------|
|---------------------------------|
|---------------------------------|
|---------------------------------|
|---------------------------------|


  G13                                    Dm
   E  E E  E     E  E      E      E       E     E     E     E     E    E  E  E
|--0--0-x--0-----0--0------x------0----|--1-----1-----x-----1-----1----1--x--1-|
|--6--6-x--6-----6--6------x------6----|--3-----3-----x-----3-----3----3--x--3-|
|--0--0-x--0-----0--0------x------0----|--2-----2-----x-----2-----2----2--x--2-|
|--7--7-x--7-----7--7------x------7----|--0-----0-----x-----0-----0----0--x--0-|
|--8--8-x--8-----8--8------x------8----|---------------------------------------|
|--------------------------------------|---------------------------------------|
|
|  Q.      S  S  E.    S  +S   S  S  S    S  S  S  S  S  S  S  S  S  S E  E  E
|-12------12-13-15----15-(15)-15-15-15-|-15-15-15-15-15-15-15-15-15-15---13-13-|
|--------------------------------------|---------------------------------------|
|--------------------------------------|---------------------------------------|
|--------------------------------------|---------------------------------------|
|--------------------------------------|---------------------------------------|
|--------------------------------------|---------------------------------------|


  F                         C                   G
   E  E E  E   E  E  E  E   E E E E E E E E     E   E   E   E   +E  E    E  E
|--1--1-x--1---1--1--x--1-|-0-0-x-0-0-0-x-0---|-3---3---3---3---(3)-3----3--3-|
|--1--1-x--1---1--1--x--1-|-1-1-x-1-1-1-x-1---|-3---3---3---3---(3)-3----3--3-|
|--2--2-x--2---2--2--x--2-|-0-0-x-0-0-0-x-0---|-4---4---4---4---(4)-4----4--4-|
|--3--3-x--3---3--3--x--3-|-2-2-x-2-2-2-x-2---|-5---5---5---5---(5)-5----5--5-|
|--3--3-x--3---3--3--x--3-|-3-3-x-3-3-3-x-3---|-5---5---5---5---(5)-5----5--5-|
|--1--1-x--1---1--1--x--1-|-------------------|-3---3---3---3---(3)-3----3--3-|
|
|                                               |--3--| |--3--|  |-3--|
|  E  E E  E  +Q     E  E   E E E E E Q   S S   E E   E E E   E  Q    E +Q
|-13-12-------------------|-------------------|-------------------------------|
|---------13-(13)---12-10-|-8-8-8-8-8-6---5h6h|=8-6---5-----------------------|
|-------------------------|-------------------|---------7-5---5---------------|
|-------------------------|-------------------|------------------7----7-(7)---|
|-------------------------|-------------------|-------------------------------|
|-------------------------|-------------------|-------------------------------|


  Dm
   E  E E  E     E  E E  E
|--1--1-x--1-----1--1-x--1-------|
|--3--3-x--3-----3--3-x--3-------|
|--2--2-x--2-----2--2-x--2-------|
|--0--0-x--0-----0--0-x--0-------|
|--------------------------------|
|--------------------------------|
|
|                        |--3--|
|  E  Q    S  S  Q.      S  S  S
|-13-12---10---------------------|
|------------13-12------10h12p10-|
|--------------------------------|
|--------------------------------|
|--------------------------------|
|--------------------------------|


  F                         C
   E  E    E  E E E E E     E   E   E   E   E E E E
|--1--1----x--1-1-1-x-1---|-0---0---x---0---0-0-x-0-|
|--1--1----x--1-1-1-x-1---|-1---1---x---1---1-1-x-1-|
|--2--2----x--2-2-2-x-2---|-0---0---x---0---0-0-x-0-|
|--3--3----x--3-3-3-x-3---|-2---2---x---2---2-2-x-2-|
|--3--3----x--3-3-3-x-3---|-3---3---x---3---3-3-x-3-|
|--1--1----x--1-1-1-x-1---|-------------------------|
|
|  E.   S +E  E E Q   S S   S S S S S S S S E E E E
|-------------------------|-------------------------|
|-10----8-(8)-6-5-6---8-8-|-8-8-8-8-8-8-8-8-8-6-5---|
|-------------------------|-----------------------7-|
|-------------------------|-------------------------|
|-------------------------|-------------------------|
|-------------------------|-------------------------|


                           D.S. al Coda
  G
  E  E E E   E E E E   E E Q  H      W
|-3----3-----3---3---|-3-----------|-------||
|-3----3-----3---3---|-3-----------|-------||
|-4--4-4-4---4-4-4-4-|-4-----------|-------||
|-5--5-5-5---5-5-5-5-|-5-----------|-------||
|-5--5-5-5---5-5-5-5-|-5-----------|-------||
|-3--3-3-3---3-3-3-3-|-3-----------|-------||
|
| Q.     S S E E E E   E E Q  H      W
|--------------------|-------------|-------||
|--------------------|-------------|-------||
|-7------5p4-5-5-4---|-------------|-------||
|------------------7-|-5-----------|-------||
|--------------------|-------------|-------||
|--------------------|-------------|-------||


                Pre-Chorus
  &
  G              F                   C                   F
  E E Q  H       E E E E +E  E E E   E E E E +E  E E E   E E E E +E  E E E
|-3-----------||-1-1-1-1-(1)-1-1-1-|-0-0-0-0-(0)-0-0-0-|-1-1-1-1-(1)-1-1-1-|
|-3-----------||-1-1-1-1-(1)-1-1-1-|-1-1-1-1-(1)-1-1-1-|-1-1-1-1-(1)-1-1-1-|
|-4-----------||-2-2-2-2-(2)-2-2-2-|-0-0-0-0-(0)-0-0-0-|-2-2-2-2-(2)-2-2-2-|
|-5-----------||-3-3-3-3-(3)-3-3-3-|-2-2-2-2-(2)-2-2-2-|-3-3-3-3-(3)-3-3-3-|
|-5-----------||-3-3-3-3-(3)-3-3-3-|-3-3-3-3-(3)-3-3-3-|-3-3-3-3-(3)-3-3-3-|
|-3-----------||-1-1-1-1-(1)-1-1-1-|-------------------|-1-1-1-1-(1)-1-1-1-|
|
| E E Q  H       W                   W                   W
|-7-----------||-------------------|-------------------|-------------------|
|-8-----------||-------------------|-------------------|-------------------|
|-7-----------||-------------------|-------------------|-------------------|
|-------------||-------------------|-------------------|-------------------|
|-------------||-------------------|-------------------|-------------------|
|-------------||-------------------|-------------------|-------------------|


                                                         Out-Chorus
  C                   G                                   Dm
  E E E E +E  E E E   E E E E E E E E   E E E E E E Q     E E E E E E E E
|-0-0-0-0-(0)-0-0-0-|-3-3-x-3-3-3-x-3-|-3-3-3-3-3-3-3--||-1-1-x-1-1-1-x-1-|
|-1-1-1-1-(1)-1-1-1-|-3-3-x-3-3-3-x-3-|-3-3-3-3-3-3-3--||-3-3-x-3-3-3-x-3-|
|-0-0-0-0-(0)-0-0-0-|-4-4-x-4-4-4-x-4-|-4-4-4-4-4-4-4--||-2-2-x-2-2-2-x-2-|
|-2-2-2-2-(2)-2-2-2-|-5-5-x-5-5-5-x-5-|-5-5-5-5-5-5-5--||-0-0-x-0-0-0-x-0-|
|-3-3-3-3-(3)-3-3-3-|-5-5-x-5-5-5-x-5-|-5-5-5-5-5-5-5--||-----------------|
|-------------------|-3-3-x-3-3-3-x-3-|-3-3-3-3-3-3-3--||-----------------|
|
| W                   W                 W                 E E E E E E E E
|-------------------|-----------------|----------------||-1-1-x-1-1-1-x-1-|
|-------------------|-----------------|----------------||-3-3-x-3-3-3-x-3-|
|-------------------|-----------------|----------------||-2---x---2---x---|
|-------------------|-----------------|----------------||-----------------|
|-------------------|-----------------|----------------||-----------------|
|-------------------|-----------------|----------------||-----------------|


  F                   C                 G
  E E E E  E  E E E   E E E E E E E E   E E E E +E  E E E
|-1-1-x-1--1--1-x-1-|-0-0-x-0-0-0-x-0-|-3-3-3-3-(3)-3-3-3-|
|-1-1-x-1--1--1-x-1-|-1-1-x-1-1-1-x-1-|-3-3-3-3-(3)-3-3-3-|
|-2-2-x-2--2--2-x-2-|-0-0-x-0-0-0-x-0-|-4-4-4-4-(4)-4-4-4-|
|-3-3-x-3--3--3-x-3-|-2-2-x-2-2-2-x-2-|-5-5-5-5-(5)-5-5-5-|
|-3-3-x-3--3--3-x-3-|-3-3-x-3-3-3-x-3-|-5-5-5-5-(5)-5-5-5-|
|-1-1-x-1--1--1-x-1-|-----------------|-3-3-3-3-(3)-3-3-3-|
|
| E E E E +E  E E E   E E E E E E E E   E E E E +E  E E E
|-1-1-x-1-(1)-1-0---|-3-3-x-3-3-3-x-3-|-3-3-x-3-(3)-3-1-0-|
|-1-1-x-1-(1)-1-1-3-|-5-5-x-5-5-5-x-5-|-3-3-x-3-(3)-3-----|
|-2---x-2-(2)---2---|-5---x---5---x---|-4---x-4-(4)---2-0-|
|-------------------|-----------------|-------------------|
|-------------------|-----------------|-------------------|
|-------------------|-----------------|-------------------|


  Dm                F                   C
  E E E E E E E E   E E E E  E  E E E   E E E E E E E E
|-1-1-x-1-1-1-x-1-|-1-1-x-1--1--1-x-1-|-0-0-x-0-0-0-x-0-|
|-3-3-x-3-3-3-x-3-|-1-1-x-1--1--1-x-1-|-1-1-x-1-1-1-x-1-|
|-2-2-x-2-2-2-x-2-|-2-2-x-2--2--2-x-2-|-0-0-x-0-0-0-x-0-|
|-0-0-x-0-0-0-x-0-|-3-3-x-3--3--3-x-3-|-2-2-x-2-2-2-x-2-|
|-----------------|-3-3-x-3--3--3-x-3-|-3-3-x-3-3-3-x-3-|
|-----------------|-1-1-x-1--1--1-x-1-|-----------------|
|
| E E E E E E E E   E E E E +E  E E E   E E E E E E E E
|-1-1-x-1-1-1-x-1-|-1-1-x-1-(1)-1-0---|-3-3-x-3-3-3-x-3-|
|-3-3-x-3-3-3-x-3-|-1-1-x-1-(1)-1-1-3-|-5-5-x-5-5-5-x-5-|
|-2---x---2---x---|-2---x-2-(2)---2---|-5---x---5---x---|
|-----------------|-------------------|-----------------|
|-----------------|-------------------|-----------------|
|-----------------|-------------------|-----------------|


  G                 F                 C
  E E E E E E E E   E E E E E E E E   E E E E E E E E
|-3---3---3---3---|-1---1---1---1---|-3---3---3---3---*|
|-3---3---3---3---|-1---1---1---1---|-5-5-5-5-5-5-5-5-*|
|-4-4-4-4-4-4-4-4-|-2-2-2-2-2-2-2-2-|-5-5-5-5-5-5-5-5-*|
|-5-5-5-5-5-5-5-5-|-3-3-3-3-3-3-3-3-|-5-5-5---5---5---*|
|-5-5-5-5-5-5-5-5-|-3-3-3-3-3-3-3-3-|-3---3---3---3---*|
|-3-3-3-3-3-3-3-3-|-1-1-1-1-1-1-1-1-|-----------------*|
|
| E E E E E E E E   E E E E E E E E   E E E E E E E E
|-7-7-x-7-7-7-x-7-|-5-5-x-5-5-5-x-5-|-----------------*|
|-8-8-x-8-8-8-x-8-|-6-6-x-6-6-6-x-6-|-5-5-x-5-5-5-x-5-*|
|-7---x---7---x---|-5---x---5---x---|-5-5-x-5-5-5-x-5-*|
|-----------------|-----------------|-5---x---5---x---*|
|-----------------|-----------------|-----------------*|
|-----------------|-----------------|-----------------*|


Duration Legend
---------------
W - whole; H - half; Q - quarter; E - 8th; S - 16th; T - 32nd; X - 64th; a - acciaccatura
+ - note tied to previous; . - note dotted; .. - note double dotted
Uncapitalized letters represent notes that are staccato (1/2 duration)
Irregular groupings are notated above the duration line
Duration letters will always appear directly above the note/fret number it represents the
duration for.  Duration letters with no fret number below them represent rests.  Multi-
bar rests are notated in the form Wxn, where n is the number of bars to rest for.  Low
melody durations appear below the staff

Tablature Legend
----------------
 h   - hammer-on
 p   - pull-off
 b   - bend
 pb  - pre-bend
 r   - bend release (if no number after the r, then release immediately)
 /\  - slide into or out of (from/to "nowhere")
 s   - legato slide
 S   - shift slide
  - natural harmonic
[n]  - artificial harmonic
n(n) - tapped harmonic
 ~   - vibrato
 tr  - trill
 T   - tap
 TP  - trem. picking
 PM  - palm muting
\n/  - tremolo bar dip; n = amount to dip
 \n  - tremolo bar down
 n/  - tremolo bar up
/n\  - tremolo bar inverted dip
 =   - hold bend; also acts as connecting device for hammers/pulls
 <>  - volume swell (louder/softer)
 x   - on rhythm slash represents muted slash
 o   - on rhythm slash represents single note slash

Misc Legend
-----------
 |  - bar
||  - double bar
||o - repeat start
o|| - repeat end
*|  - double bar (ending)
 :  - bar (freetime)
 $  - Segno
 &  - Coda
Tempo markers -  = BPM(8/16=s8/s16), where s8 = swing 8ths, s16 = swing 16ths
Suggest correction
Give kudos to tab author, rate the tab!
1 2 3 4 5
comments
print report bad tab
guest
You may want to rate the tab now too:
select rating
Wanna post a correction for this tab? Suggest correction