Oops, an error
Loading. Please wait.

Us Against The World bass

version 2
version 2

Whole song

Interactive

316 views 1 this week
no commentswrite comment
1 2 3 4 5
x 4
add to favorites
×
Save as Personal and add changes to this tab that will be seen only by you. Learn more ›
×
You can save this tab as Personal to edit and correct it or add notes. All changes will be seen only by you. Learn more »
launch autoscroll
font size
0
reset
guitar tuner
edit
Autoscroll
slow
fast
+/-
esc
set tempo
stop
Author
Difficulty
                             Us Against The World                               

                                 Steve Harris

Steve Harris



          Intro                                                     
     S    W                   W                   W                 
G||----|-------------------|-------------------|-------------------|
D||----|-------------------|-------------------|-------------------|
A||----|-------------------|-------------------|-------------------|
E||----|-------------------|-------------------|-------------------|


  W                   W                   W                   W                 
-------------------|-------------------|-------------------|-------------------|
-------------------|-------------------|-------------------|-------------------|
-------------------|-------------------|-------------------|-------------------|
-------------------|-------------------|-------------------|-------------------|


                      Riff A                                
                      >          >     >     >     >   >    
  W                   S      S S S S S S S S S S S S S S S  
-------------------|---------------------------------------|
-------------------|---------------------------------------|
-------------------|--7------7-7-7-7-7-7-7-7-7-7-7-7-7-7-7-|
-------------------|---------------------------------------|


  >     >     >         >            >     >     >     >     >   >    
  S S S S S S S S S S S S S S S S    S S S S S S S S S S S S S S S S  
----------------------------------|----------------------------------|
----------------------------------|----------------------------------|
--3-3-3-3-3-3-3-3-3-3-3-3-5-3-0---|--5-5-5-5-5-5-5-5-5-5-5-5-5-5-5-5-|
--------------------------------3-|----------------------------------|


  >     >                         >     >     >     >     >   >    
  S S S S S S S S E  S S E  E     S S S S S S S S S S S S S S S S  
-------------------------------|----------------------------------|
--------4-4-4-5-5-4--4---------|----------------------------------|
--7-7-7----------------7-5-----|--7-7-7-7-7-7-7-7-7-7-7-7-7-7-7-7-|
----------------------------7--|----------------------------------|


  >     >     >         >            >     >     >     >     >   >    
  S S S S S S S S S S S S S S S S    S S S S S S S S S S S S S S S S  
----------------------------------|----------------------------------|
----------------------------------|----------------------------------|
--3-3-3-3-3-3-3-3-3-3-3-3-5-3-0---|--5-5-5-5-5-5-5-5-5-5-5-5-5-5-5-5-|
--------------------------------3-|----------------------------------|


                                 Verse Riff                  
  >     >                                                    
  S S S S S S S S E.  S E  E     E.         E.  E  H         
------------------------------|-----------------------------|
--------4-4-4-5-5-4-----------|-----------------------------|
--7-7-7---------------7-5-----|-----------------7--L--------|
---------------------------7--|--0----------0---------------|


  E.  E.  E  H           E.  E.  E  H           E.  E.  Q    E  E  E   
----------------------|----------------------|------------------------|
----------------------|----------------------|------4---5----4--------|
--3---3---3--L--------|--5---5---5--L--------|--7---------------7--5--|
----------------------|----------------------|------------------------|


  E.  E.  E  H           E.  E.  E  H           E.  E.  E  H         
----------------------|----------------------|----------------------|
----------------------|----------------------|----------------------|
----------7--L--------|--3---3---3--L--------|--5---5---5--L--------|
--0---0---------------|----------------------|----------------------|


  E.  E.  Q    E  E  E     E.  E.  E  H           E.  E.  E  H         
------------------------|----------------------|----------------------|
------4---5----4--------|----------------------|----------------------|
--7---------------7--5--|----------7--L--------|--3---3---3--L--------|
------------------------|--0---0---------------|----------------------|


  E.  E.  E  H           E.  E.  Q    E  E  E     E.  E.  E  H         
----------------------|------------------------|----------------------|
----------------------|------4---5----4--------|----------------------|
--5---5---5--L--------|--7---------------7--5--|----------7--L--------|
----------------------|------------------------|--0---0---------------|


  E.  E.  E  H           E.  E.  E  H           E.  E.  Q    E  E  E   
----------------------|----------------------|------------------------|
----------------------|----------------------|------4---5----4--------|
--3---3---3--L--------|--5---5---5--L--------|--7---------------7--5--|
----------------------|----------------------|------------------------|


  Pre-Chorus                                                
  W                   W                   W                 
-------------------|-------------------|-------------------|
-------------------|-------------------|-------------------|
--3----------------|--5----------------|--L----------------|
-------------------|-------------------|-------------------|


  Chorus                                                                   
  >          >     >   >     >     >      >     >     >         >          
  S      S S S S S S S S S S S S S S S    S S S S S S S S S S S S S S S S  
---------------------------------------|----------------------------------|
---------------------------------------|----------------------------------|
--7------7-7-7-7-7-7-7-7-7-7-7-7-7-7-7-|--3-3-3-3-3-3-3-3-3-3-3-3-5-3-0---|
---------------------------------------|--------------------------------3-|


  >     >     >   >     >     >      >     >     >                 
  S S S S S S S S S S S S S S S S    S S S S S S S S S E  S E  E   
----------------------------------|-------------------------------|
----------------------------------|--------4-4-4-5-5-5-4----------|
--5-5-5-5-5-5-5-5-5-5-5-5-5-5-5-5-|--7-7-7----------------7-5-----|
----------------------------------|----------------------------7--|


  >     >     >   >     >     >      >     >     >         >          
  S S S S S S S S S S S S S S S S    S S S S S S S S S S S S S S S S  
----------------------------------|----------------------------------|
----------------------------------|----------------------------------|
--7-7-7-7-7-7-7-7-7-7-7-7-7-7-7-7-|--3-3-3-3-3-3-3-3-3-3-3-3-5-3-0---|
----------------------------------|--------------------------------3-|


  >     >     >   >     >     >      >     >     >                 
  S S S S S S S S S S S S S S S S    S S S S S S S S S E  S E  E   
----------------------------------|-------------------------------|
----------------------------------|--------4-4-4-5-5-5-4----------|
--5-5-5-5-5-5-5-5-5-5-5-5-5-5-5-5-|--7-7-7----------------7-5-----|
----------------------------------|----------------------------7--|


  Riff A                                                                   
  >          >     >     >     >   >      >     >     >         >          
  S      S S S S S S S S S S S S S S S    S S S S S S S S S S S S S S S S  
---------------------------------------|----------------------------------|
---------------------------------------|----------------------------------|
--7------7-7-7-7-7-7-7-7-7-7-7-7-7-7-7-|--3-3-3-3-3-3-3-3-3-3-3-3-5-3-0---|
---------------------------------------|--------------------------------3-|


  >     >     >     >     >   >      >     >                       
  S S S S S S S S S S S S S S S S    S S S S S S S S E  S S E  E   
----------------------------------|-------------------------------|
----------------------------------|--------4-4-4-5-5-4--4---------|
--5-5-5-5-5-5-5-5-5-5-5-5-5-5-5-5-|--7-7-7----------------7-5-----|
----------------------------------|----------------------------7--|


  Verse Riff                                                                
  E.         E.  E  H           E.  E.  E  H           E.  E.  E  H         
-----------------------------|----------------------|----------------------|
-----------------------------|----------------------|----------------------|
-----------------7--L--------|--3---3---3--L--------|--5---5---5--L--------|
--0----------0---------------|----------------------|----------------------|


  E.  E.  Q    E  E  E     E.  E.  E  H           E.  E.  E  H         
------------------------|----------------------|----------------------|
------4---5----4--------|----------------------|----------------------|
--7---------------7--5--|----------7--L--------|--3---3---3--L--------|
------------------------|--0---0---------------|----------------------|


  E.  E.  E  H           E.  E.  Q    E  E  E     E.  E.  E  H         
----------------------|------------------------|----------------------|
----------------------|------4---5----4--------|----------------------|
--5---5---5--L--------|--7---------------7--5--|----------7--L--------|
----------------------|------------------------|--0---0---------------|


  E.  E.  E  H           E.  E.  E  H           E.  E.  Q    E  E  E   
----------------------|----------------------|------------------------|
----------------------|----------------------|------4---5----4--------|
--3---3---3--L--------|--5---5---5--L--------|--7---------------7--5--|
----------------------|----------------------|------------------------|


  E.  E.  E  H           E.  E.  E  H           E.  E.  E  H         
----------------------|----------------------|----------------------|
----------------------|----------------------|----------------------|
----------7--L--------|--3---3---3--L--------|--5---5---5--L--------|
--0---0---------------|----------------------|----------------------|


                           Pre-Chorus                            
  E.  E.  Q    E  E  E     W                   W                 
------------------------|-------------------|-------------------|
------4---5----4--------|-------------------|-------------------|
--7---------------7--5--|--3----------------|--5----------------|
------------------------|-------------------|-------------------|


                      Chorus                                
                      >          >     >   >     >     >    
  W                   S      S S S S S S S S S S S S S S S  
-------------------|---------------------------------------|
-------------------|---------------------------------------|
--L----------------|--7------7-7-7-7-7-7-7-7-7-7-7-7-7-7-7-|
-------------------|---------------------------------------|


  >     >     >         >            >     >     >   >     >     >    
  S S S S S S S S S S S S S S S S    S S S S S S S S S S S S S S S S  
----------------------------------|----------------------------------|
----------------------------------|----------------------------------|
--3-3-3-3-3-3-3-3-3-3-3-3-5-3-0---|--5-5-5-5-5-5-5-5-5-5-5-5-5-5-5-5-|
--------------------------------3-|----------------------------------|


  >     >     >                   >     >     >   >     >     >    
  S S S S S S S S S E  S E  E     S S S S S S S S S S S S S S S S  
-------------------------------|----------------------------------|
--------4-4-4-5-5-5-4----------|----------------------------------|
--7-7-7----------------7-5-----|--7-7-7-7-7-7-7-7-7-7-7-7-7-7-7-7-|
----------------------------7--|----------------------------------|


  >     >     >         >            >     >     >   >     >     >    
  S S S S S S S S S S S S S S S S    S S S S S S S S S S S S S S S S  
----------------------------------|----------------------------------|
----------------------------------|----------------------------------|
--3-3-3-3-3-3-3-3-3-3-3-3-5-3-0---|--5-5-5-5-5-5-5-5-5-5-5-5-5-5-5-5-|
--------------------------------3-|----------------------------------|


                                 Bridge                                   
  >     >     >                  >          >     >       >               
  S S S S S S S S S E.  E  E     S      S S S S S S S S S S S S  S  S S   
------------------------------|------------------------------------------|
--------4-4-4-5-5-5-4---------|------------------------------------------|
--7-7-7-----------------7--5--|--3------3-3-3-3-3-3-3-3-3-3-3-3h-5p-3-2S-|
------------------------------|------------------------------------------|


  >     >     >     >     >   >      >          >          >     
  S S S S S S S S S S S S S S S S    E  S S S S E  S S S S Q     
----------------------------------|-----------------------------|
----------------------------------|-------4-4-4-5--5-7-7-7-9----|
--5-5-5-5-5-5-5-5-5-5-5-5-5-5-5-5-|--7--7-----------------------|
----------------------------------|-----------------------------|


  >          >          >       >     >     >       >               
  E  S S S S E  S S S S Q       S S S S S S S S S S S S S  S  S S   
-----------------------------|-------------------------------------|
-------4-4-4-5--5-7-7-7-9----|-------------------------------------|
--7--7-----------------------|--3-3-3-3-3-3-3-3-3-3-3-3-3h-5p-3-2S-|
-----------------------------|-------------------------------------|


  >     >     >     >     >   >      >          >          >     
  S S S S S S S S S S S S S S S S    E  S S S S E  S S S S Q     
----------------------------------|-----------------------------|
----------------------------------|-------4-4-4-5--5-7-7-7-9----|
--5-5-5-5-5-5-5-5-5-5-5-5-5-5-5-5-|--7--7-----------------------|
----------------------------------|-----------------------------|


  >          >          >     
  E  S S S S E  S S S S Q     
-----------------------------|
-------4-4-4-5--5-7-7-7-9----|
--7--7-----------------------|
-----------------------------|


  Solo David Hawkins                                
  >                                >                
  S                  S S S S S S S S S S S S S S S  
---------------------------------------------------|
---------------------------------------------------|
--3------------------3-3-3-3-3-3-3-3-3-3-3-3-3-3-3-|
---------------------------------------------------|


  >               >                  >               >                
  S S S S S S S S S S S S S S S S    S S S S S S S S S S S S S S S S  
----------------------------------|----------------------------------|
----------------------------------|----------------------------------|
--5-5-5-5-5-5-5-5-5-5-5-5-5-5-5-5-|--7-7-7-7-7-7-7-7-7-7-7-7-7-7-7-7-|
----------------------------------|----------------------------------|


  >     >     >     >              >     >     >     >     >   >    
  S S S S S S S S S S S S E  E     S S S S S S S S S S S S S S S S  
--------------------------------|----------------------------------|
--------------------------------|----------------------------------|
--7-7-7-7-7-7-7-7-7-7-7-7-7--5--|--3-3-3-3-3-3-3-3-3-3-3-3-3-3-3-3-|
--------------------------------|----------------------------------|


  >     >     >     >     >   >                                  
  S S S S S S S S S S S S S S S S    S E  S E  S E  S E  S E  S  
----------------------------------|-----------------------------|
----------------------------------|-----------------------------|
--5-5-5-5-5-5-5-5-5-5-5-5-5-5-5-5-|----7----7----7----7----7----|
----------------------------------|--0----0----0----0----0----0-|


                            Pre-Chorus                            
  E.  E.  Q    E  E   E     W                   W                 
-------------------------|-------------------|-------------------|
------4---5----L--L\-----|-------------------|-------------------|
--7----------------------|-------------------|-------------------|
-------------------------|-------------------|-------------------|


                      Chorus                                
                      >          >     >   >     >     >    
  W                   S      S S S S S S S S S S S S S S S  
-------------------|---------------------------------------|
-------------------|---------------------------------------|
-------------------|--7------7-7-7-7-7-7-7-7-7-7-7-7-7-7-7-|
-------------------|---------------------------------------|


  >     >     >         >            >     >     >   >     >     >    
  S S S S S S S S S S S S S S S S    S S S S S S S S S S S S S S S S  
----------------------------------|----------------------------------|
----------------------------------|----------------------------------|
--3-3-3-3-3-3-3-3-3-3-3-3-5-3-0---|--5-5-5-5-5-5-5-5-5-5-5-5-5-5-5-5-|
--------------------------------3-|----------------------------------|


  >     >     >     >     >       >     >     >   >     >     >    
  S S S S S S S E   S S S Q       S S S S S S S S S S S S S S S S  
-------------------------------|----------------------------------|
--------4-4-4-5-5S--7-7-7-9----|----------------------------------|
--7-7-7------------------------|--7-7-7-7-7-7-7-7-7-7-7-7-7-7-7-7-|
-------------------------------|----------------------------------|


  >     >     >         >            >     >     >   >     >     >    
  S S S S S S S S S S S S S S S S    S S S S S S S S S S S S S S S S  
----------------------------------|----------------------------------|
----------------------------------|----------------------------------|
--3-3-3-3-3-3-3-3-3-3-3-3-5-3-0---|--5-5-5-5-5-5-5-5-5-5-5-5-5-5-5-5-|
--------------------------------3-|----------------------------------|


                                  Outro Chorus                                
  >     >     >     >     >       >                >     >   >     >     >    
  S S S S S S S E   S S S Q       S            S S S S S S S S S S S S S S S  
-------------------------------|---------------------------------------------|
--------4-4-4-5-5S--7-7-7-9----|---------------------------------------------|
--7-7-7------------------------|--7------------7-7-7-7-7-7-7-7-7-7-7-7-7-7-7-|
-------------------------------|---------------------------------------------|


  >     >     >         >            >     >     >   >     >     >    
  S S S S S S S S S S S S S S S S    S S S S S S S S S S S S S S S S  
----------------------------------|----------------------------------|
----------------------------------|----------------------------------|
--3-3-3-3-3-3-3-3-3-3-3-3-5-3-0---|--5-5-5-5-5-5-5-5-5-5-5-5-5-5-5-5-|
--------------------------------3-|----------------------------------|


  >     >     >     >     >       >     >     >   >     >     >    
  S S S S S S S E   S S S Q       S S S S S S S S S S S S S S S S  
-------------------------------|----------------------------------|
--------4-4-4-5-5S--7-7-7-9----|----------------------------------|
--7-7-7------------------------|--7-7-7-7-7-7-7-7-7-7-7-7-7-7-7-7-|
-------------------------------|----------------------------------|


  >     >     >         >            >     >     >   >     >     >    
  S S S S S S S S S S S S S S S S    S S S S S S S S S S S S S S S S  
----------------------------------|----------------------------------|
----------------------------------|----------------------------------|
--3-3-3-3-3-3-3-3-3-3-3-3-5-3-0---|--5-5-5-5-5-5-5-5-5-5-5-5-5-5-5-5-|
--------------------------------3-|----------------------------------|


  Outro                                                             
  >         >     >     >     >       >     >     >     >     >     
  S     S S S S S S S S S S S Q       S S S S S S S S S S S S Q     
-----------------------------------|-------------------------------|
------------4-4-4-5-5-5-7-7-7-9----|--------4-4-4-5-5-5-7-7-7-9----|
--7-----7-7------------------------|--7-7-7------------------------|
-----------------------------------|-------------------------------|


  ^   ^   ^              
  E.  E.  E.  E.  Q      
-----------------------||
-----------------------||
-----------------------||
--0---0---0------------||




Duration Legend
---------------
W - whole
H - half
Q - quarter
E - 8th
S - 16th
T - 32nd
X - 64th
. - note dotted
|-n-|  - n-tuplets


Tablature Legend
----------------
L - tied note
x - dead note
g - grace note
(n) - ghost note
> - accentuded note
NH - natural harmonic
AH - artificial harmonic
TH - tapped harmonic
SH - semi harmonic
PH - pitch harmonic
h - hammer on
p - pull off
b - bend
br - bendRelease
pb - preBend
pbr - preBendRelease
brb - bendReleaseBend
\n/ - tremolo bar dip
\n - tremolo bar dive
-/n - tremolo bar Release up
/n\ - tremolo bar inverted dip
/n - tremolo bar return
-\n - tremolo bar Release down
S - shift slide
s - legato slide
/ -  slide into from below or out of upwards
\ -  slide into from above or out of downwards
~ - vibrato
W - wide vibrato
tr - trill
TP - tremolo picking
T - tapping
S - slap
P - pop
< - fade in
^ - brush up
v - brush down

            
            
Suggest correction
Creating personal tab
Creating personal tab
You can edit any tab online and save it as your Personal.

You can edit, replace or remove any tab part or add personal notes – all changes will be seen only by you.

Personal tabs can be accessed anytime from any device, even offline.
Learn more »
comments
print report bad tab
guest
You may want to rate the tab now too:
select rating
Wanna post a correction for this tab? Suggest correction