Oops, an error
Loading. Please wait.

Surface Tension Tab

version 2
version 2

Whole song

Interactive

1,391 views 3 this week
no commentswrite comment
1 2 3 4 5
please rate
add to favorites
launch autoscroll
font size
0
reset
how to read this tab
guitar tuner
Autoscroll
slow
fast
+/-
esc
set tempo
stop
Help us to improve Ultimate-Guitar.com Take our survey!
×
Contributor
waldo_dog 153
-------------------------------------------------------------------------------
                             Surface Tension - Steve Howe
-------------------------------------------------------------------------------
Tabbed by: milo
Email: waldodog3@hotmail.com

Tuning: standard

This is the tab for the version found in Howe's instructional video, so I doubt that 
an actual
recording. If you don't own the video, just do what I did and look it up on the 
Hope I didn't
make any mistakes and hope you like it :)

e|---0----2---3-2-0-2-3------------------7--5-3-2-0-----6--5-3h5p3--2-2-2-2---|
B|---1----3-----------1---------------0-----0-0-0----3--------------3-3-3-3---|
G|---2----2-----------0---0-0-0-0-----0--------------3--------------4-4-4-4---|
D|---2----0-----------2---2-2-0-0-----0--------------0--------------0-0-0-0---|
A|---0----------------3---3-3-2-0--2------------------------------------------|
E|---------------------------------3------------------------------------------|

e|---14---12-10-9-7--13--12-10--12--10-8h10p8-7-5--11--10-8-4-------------------|
B|---12--------------10---------10------------------8----------7--5--4h5p4------|
G|---11--------------10----------9------------------8-------6--------------6----|
D|----0-------------------------10-----------------10----------6-------------6--|
A|-------------------------------0--------------------------4-------------------|
E|-------------------------------------------------------------------4----------|

e|------3--2-0-2---------------------1-1p0----0h1p0--------------------------------|
B|------5---------5--3-2h3p2---------------3--------3-1--0h1p0---------4-3---------|
G|------4------4-------------4----------------2----------------2-----------5--4-4--|
D|------5---------4------------4--0-----------------2------------2--5--------------|
A|-------------2------------------------------0----------0----------3--------------|
E|---0-----------------2--------------------------------------------3--------------|

e|------------3-5-7-2h3h5p3p2-2h3h5p3p2-----0------0-2-3----0-------------------|
B|---------------------------------------3---1-----1-----3---3-0---------1------|
G|---------4------------------------------2---0----0-----0------0---------2-----|
D|-------5----------0--------------------------2---2-----0-------0-----2---2----|
A|-----5------------------------------------3---3--3-----2---------2-0-------0--|
E|---3--------------------------------------------------------------------------|

e|-------0---------------3-5-7--10--8-7--14-15-14-----0-------0-2-3---0--------|
B|---1h3---3-1-0--------0-------------------------10----1-----1-----3---3-0----|
G|---------0-2-0-2-----0---------------------------------0----0----------------|
D|---2-----0-2-0-0----0----------0------------------------2---2----------------|
A|---------2-0-2-0---2--------------------------------3----3--3-----2----------|
E|---------------2--3----------------------------------------------------------|

e|-----------------------------0------------0--------------12-----------0------|
B|-------------------1-----1h3---3-1-0--1h3---3-1-0--13-15----3-1-0-----0------|
G|---------------------2---------0-2-0--------0-2-0-----------0-2-0-2---0------|
D|-------------------2--2--------0-2-0--------0-2-0-----------0-2-0-0---2------|
A|--2-5-3-2-2h3p2p0--------0-----2-0-2--0-----2-0-2---0-------2-0-2-0---2------|
E|------------------------------------------------------------------2---0------|

e|---9-10-9h10p9----9---------------------------3-5-7-10--8-7--15-17-15--14-15-14-12--|
B|---------------12----3----3----------------0----------------------------------------|
G|----------------------0----0--2-----------0-----------------------------------------|
D|----------------------------0---0--------0----5-7-9-12-10-9-------------------------|
A|---0--------------------2---------0-----2-------------------------------------------|
E|------------------------------2-----2--3--------------------------------------------|

e|---0-0--0-2-3---0-----------------------------------------------0------------0---------|
B|---1-1--------3---3-0----------------------------------1----1h3---3-1-0--1h3---3-1-0---|
G|---0-0--------0---------------------4-7-5-4-4h5p4--2-----2--------0-2-0--------0-2-0---|
D|---2-2--------0----------------------------------------2----------0-2-0--------0-2-0---|
A|---3-3--------2-------2-5-3-2-2h3p2------------------0------0-----2-0-2--0-----2-0-2---|
E|---------------------------------------------------------------------------------------|

e|---------12----------0------------------7-----9-10-9h10p9---9-10--------------------|
B|---13-15----3-1-0----0---2--3-2h3p2---2--8----------------12----8-----8-7-----------|
G|------------0-2-0-2--0---2----------4-----9----------------------0--------9-7-------|
D|------------0-2-0-0--2---2-----------------9----------------------9-----------0-----|
A|----0-------2-0-2-0--2---0--------------------0---------------10-----10-------------|
E|------------------2--0------------------0-------------------------------------------|

e|---14--12-10-9-7-13--12-10--9h10p9-----------14--12-10-9-7--1--0--------------1-0---|
B|---12------------10----------------10--------12-------------3---3-2h3p2------3---3--|
G|---11------------10------------------9-------11-------------2----------2----2-------|
D|---------------------------------------11-0-----------------3-----------2--3--------|
A|----------------------------0-------------------------------------0------0----------|
E|------------------------------------------------------------------------------------|

e|--------------5/7-7/9-9999-7-5-7--9-7-5----------------------2-4-5-4-2-5-4-2-0---|
B|---2h3p2--------------------------------9-7-7h9p7-5------------------------------|
G|---------2-----------------------------------------------------------------------|
D|----------2--------------------0--------------------6-9\3-4------2-----0---------|
A|---0-------0---------------------------------------------------------------------|
E|--------------------------------------------0------------------------------------|

e|----------10-12-14-14-14-14-12-10-12-14-12-10-----------------------------7-9-10-9-7---|
B|---2------------------------------------------14-12-12h14p12-10------------------------|
G|-------2---------------------------0---------------------------------------------------|
D|-----2-----------0---------------------------------------------11-14\8-9-------7-------|
A|---0----0--------------------------------------------0---------------------------------|
E|---------------------------------------------------------------------------------------|

e|---10-9-7-5---10-9-7-5---10-9-7-5-------10--9-7h9p7-5--10--9-7h9p7---10--9-7h9p7--9-----|
B|------------7------------------------7---0--------------0-------------0-----------------|
G|----0----------0----------0-------6------0--------------0---------7---0-----------9--7--|
D|------------0---------0-----------------------------0--------------0--------------------|
A|----------------------------------------------------------------------------------------|
E|----------------------------------5--7-----------------------------------------------7--|

e|--10-10-10-10-10-8-6-5-----5-6-5h6p5-5-----------10-10-12-13-15-------------------3p0-3p2--|
B|------------------------6-8---------8-6-8-6-5-6------------------0-1-3-----0-1p0-----------|
G|-----------------------------------------------------------------0-2-0--0-2-----2----------|
D|---------------8-7-5-3----------------------------7--8-10-12-14--0-2-0-------0-------------|
A|------------------------------------------5-3--------------------2-0-2---------------------|
E|----------------------------------------------5------------------3-------------------------|

e|-----0--------7-8-10-------------------15p12-15p14--12------------------------------3p0-3p2-|
B|---3---1p0------------------12-13p12--------------15--13p12-------0-1-3------0-1p0----------|
G|----------2p0---------12-14---------14---------------------14p12--0-2-0--0-2------2---------|
D|--------------5-7--9------------0---------------------------------0-2-0--------0------------|
A|------------------------------------------------------------------2-0-2---------------------|
E|------------------------------------------------------------------3-------------------------|

e|-----0---------7-8-10-------------12-10-8h10p8-7-5--11--10-8-7-------------------3p0-3p2-----|
B|---3---1p0------------------12----10-----------------8---------0-1-3------0-1p0----------3---|
G|----------2p0---------12-14--------9-----------------8---------0-2-0--0-2------2-------------|
D|---------------5-7--9-------------10----------------10---------0-2-0--------0----------------|
A|-------------------------------0-------------------------------2-0-2-------------------------|
E|---------------------------------------------------------------3-----------------------------|

e|---0---------7-8-10-----------14--12-10-9-7-13--12-10-12--10-8h10p8-7-5--11-10--8-----------|
B|-----1p0------------------12--12------------10--------10---------------------------3-1-0----|
G|--------2p0---------12-14-----11------------10---------9---------------------------0-2-0-2--|
D|-------------5-7--9---------0-------------------------10-----------------13-12-10--0-2-0-0--|
A|-------------------------------------------------------0---------------------------2-0-2-0--|
E|-----------------------------------------------------------------------------------------2--|

                                                     + + + +  + + +
e|--------3-5-7-10-8-7--15-17-15--14-15-14-12--0-0--12-------12--------------------------|
B|-------0-------------------------------------1-1-----7----------12---------------------|
G|------0--------------------------------------0-0-------5-7----7------------------------|
D|-----0---------0-----------------------------2-2---------------------------------------|
A|----2----------------------------------------3-3-------------------2-5-3-2-2h3p2-------|
E|---3-----------------------------------------------------------------------------------|

e|------------------7-10-8-7-7h8p7-5--0-0--------0------------0--------------12----------|
B|------------------------------------1-1--1-1h3---3-1-0--1h3---3-1-0--13-15-------------|
G|---4-7-5-4-4h5p4--------------------2-2----------0-2-0--------0-2-0--------------------|
D|------------------------------------2-2----------0-2-0--------0-2-0--------------------|
A|------------------------------------0-0----------2-0-2--0-----2-0-2---0----------------|
E|---------------------------------------------------------------------------------------|

e|----------------12-------------------3-------------------------------------------------|
B|---3-1-0--13-15----3-1-0------------0--------------------------------------------------|
G|---0-2-0-----------0-2-0-----2-----0---------------------------------------------------|
D|---0-2-0-----------0-2-0----0-----0----------------------------------------------------|
A|---2-0-2---0-------2-0-2---0-----2-----------------------------------------------------|
E|--------------------------2-----3------------------------------------------------------|


************************************

| /   slide up
| \   slide down
| h   hammer-on
| p   pull-off
| ~   vibrato
| +   harmonic
| x   Mute note
| b   Bend
| pb  Pre-bend
| br  Bend release
| pbr Pre-bend release
| brb Bend release bend

************************************
comments
We did not receive enough feedback on this tab! Please rate:
print report bad tab
1 2 3 4 5
I want to post or [tab]
guest
You may want to rate the tab now too:
select rating
Please do not post tabs as comments. Select "correction" instead!