Oops, an error
Loading. Please wait.

Turn Of The Century Tab

8,768 views 33 this week
no commentswrite comment
1 2 3 4 5
x 6
add to favorites
launch autoscroll
font size
0
reset
how to read this tab
guitar tuner
Autoscroll
slow
fast
+/-
esc
set tempo
stop
Author
Difficulty
Tuning
advanced
E A D G B E
-------------------------------------------------------------------------------
Turn of the century: Steve Howe of YES
-------------------------------------------------------------------------------
Tabbed by: ed28112 I learned to play this song watching Steve play it on his video
Email: jstanley11@carolina.rr.com               

Tuning: Standard 

e|-0----------------10--8--7----------------------7--13--12-10-7-7-/-8---5-|
B|--0-------------------------8--/-10-/-5-8--8-----------------------------|
G|---9-----------------------------------------------10--9--7--------------|
D|----10------10----12--10-9----------------------9------------9-9-/-10--7-|
A|------0---7----7------------10-/-12-/-7-10-10----------------------------|
E|-------0-----------------------------------------------------------------|


e|------5~~-----------------------------------------7-h8-7-h8p7-5--------------|
B|--6-8----8-6-5~~--------------------------6-5----------------------6-5-------|
G|----------------5-7-7h9-7-5h7p5-4--------7----7-5-----------------7----7-5---|
D|----------------------------------5-7---7------------------------7---------7-|
A|--------------------------------------8-------------------------8------------|
E|-----------------------------------------------------------------------------|


e|------------------------13h15p13-12h13p12-10h12p10-8h10p8-10h12p10-12h15-12---|
B|-----------6--8-/-10--8-------------------------------------------------------|
G|---------7------------------------------------------------------------------0-|
D|-------7----------------------------------------------------------------------|
A|-7-7-8--------10/-12--10-------------------------------------------0----------|
E|------------------------------------------------------------------------------|


e|--10--8---7-----------------------------------------------------0---------|
B|-------------8-/-10--5--8-/-10--8------5-----8---6---3---6--5----0--------|
G|------------------------------------------------------------------9-------|
D|--12--10--9--------------------------------------------------------10-----|
A|-------------10/-12--7—-10/-12--10---7----10---8---5---8----7--------0----|
E|----------------------------------------------------------------------0---|


e|-16--14-12-11--12--9--12--9--11--7--11--7--9--4------4----------------7--7--|
B|-----------------------------0-----------------4-------7-5-4--5---5-----4-4-|
G|------------------------------------------------5---------------6---6-------|
D|-------------------------------------------------4--------------------------|
A|-------------------------------------------0------6-----------4---4---------|
E|---------------------------------------------------4------------------7-----|


e|-12-11-9-9--9-11-12-14--12-11-12-14--16-14-12-11~~-12--9—-12--9--11--11---------|
B|----0----------------------------------------------9------9------0---0-------0--|
G|---------------------------------------------------9------9------8---8-------8--|
D|---------------------------------------------------11-----11-----9---9---9---9--|
A|-------0-0----------------------------------------------------------------------|
E|--------------------------------------------------------------------------------|


e|-2--2--2----------------4-5-7-5-4h5p4---4-----4-----7-----7----|
B|-2--2--2---------------4-------------7-----5-----5-----4-----4-|
G|-2--2--2--------------5----------------------------------------|
D|-6--4--2--2-2-2------4---------------------6-----6--------4----|
A|----------6-4-2-----6-------------------4-----4--------6-------|
E|----------------5--4--------------------------------7--------7-|


e|--9--11--12-11-9-------------------------9-11-12--10--8-------8-------|
B|-----------------12-10-9---------9-10-12----------------12-10---12-10-|
G|-------------------------11-9-11--------------------------------------|
D|----------------------------------------------10----------------------|
A|--0-------------------------------------------------------------------|
E|----------------------------------------------------------------------|


e|-8-------8-------8--------------0---------------------------------|
B|---12-10---12-10----+12--------0----------------------------------|
G|-----------------------------11-----------------------------------|
D|----------------------------9-------------------------------------|
A|--------------------------11--------------------------------------|
E|-------------------------0----------------------------------------|




************************************

| /   slide up
| \   slide down
| h   hammer-on
| p   pull-off
| ~   vibrato
| +   harmonic

************************************
Suggest correction
comments
print report bad tab
guest
You may want to rate the tab now too:
select rating
Wanna post a correction for this tab? Suggest correction