Oops, an error
Loading. Please wait.

Tonight You Belong To Me ukulele

version 5
version 5

Whole song

133 views 30 this week
no commentswrite comment
1 2 3 4 5
x 3
add to favorites
×
Save as Personal and add changes to this tab that will be seen only by you. Learn more ›
×
You can save this tab as Personal to edit and correct it or add notes. All changes will be seen only by you. Learn more »
launch autoscroll
font size
0
reset
transpose
0
reset
simplify chords
display chords
guitar tuner
edit
Autoscroll
slow
fast
+/-
esc
set tempo
stop
Author
Difficulty
Strumming
There is no strumming pattern for this song yet. and get +5 IQ
[Instrumental] x2

A|-------------0-2-0------------0-2-0-|
E|---3---0-1-3----------3-0-3---------|
C|-2----2-----------------------------|
G|------------------------------------|


A|--------0-2-0----0-2-----0--5--1/2--|
E|-3---3---------3-------3-----------3|
C|---3--------------------------------|
G|------------------------------------|


A|--2-2-2-2--3--2---------------------|
E|--3-3-3-3--------3------------------|
C|--2-2-2-2---------------------------|
G|------------------------------------|

[Verse 1]
G                     Dm
I know (I know) you belong
    C       Cm7
To somebody new
      G
But tonight
       D7     G
You belong to me


[Verse 2]
 G                         Dm
Although (although) we're apart,
         Cm         Cm7
You're a part of my heart
      G
And tonight
       D7     G
You belong to me


[Bridge]
    Cm7  Cm6        Cm7   Cm6
Way down ... by the stream,
      Cm7 Cm6           Cm7   Cm6
How sweet ... it will seem
     G            E7
Once more just to dream
       A7         D7
In the moonlight


[Verse 3]
            G
My honey I know
         Dm
With the dawn
     C           Cm7
That you will be gone
       G
But tonight
      D7      G
You belong to me, just a little old me



[Instrumental] x2

|-------------0-2-0------------0-2-0-|
|---3---0-1-3----------3-0-3---------|
|-2----2-----------------------------|
|------------------------------------|


|--------0-2-0----0-2-----0--5--1/2--|
|-3---3---------3-------3-----------3|
|---3--------------------------------|
|------------------------------------|


[Bridge]
    Cm7  Cm6        Cm7   Cm6
Way down ... by the stream,
      Cm7 Cm6           Cm7   Cm6
How sweet ... it will seem
     G            E7
Once more just to dream
       A7         D7
In the moonlight


[Verse 3]
            G
My honey I know
         Dm
With the dawn
     C           Cm7
That you will be gone
       G
But tonight
      D7      G
You belong to me, just a little old me

            
            
Suggest correction
Creating personal tab
Creating personal tab
You can edit any tab online and save it as your Personal.

You can edit, replace or remove any tab part or add personal notes – all changes will be seen only by you.

Personal tabs can be accessed anytime from any device, even offline.
Learn more »
Give kudos to tab author, rate the tab!
1 2 3 4 5
comments
print report bad tab
guest
You may want to rate the tab now too:
select rating
Wanna post a correction for this tab? Suggest correction