Oops, an error
Loading. Please wait.

Abracadabra Tab

version 2
version 2

Whole song

Interactive

9,386 views 93 this week
no commentswrite comment
1 2 3 4 5
excellent!
x 7
add to favorites
launch autoscroll
font size
0
reset
how to read this tab
guitar tuner
Tab Pro tools
  • play this tab
  • loop segment
  • change instrument
  • show fretboard
  • metronome
Autoscroll
slow
fast
+/-
esc
set tempo
stop
Contributor
Difficulty
This is my first tab so their might be a few mistakes. I think it sounds good overall. I 
writed it down a bit sloppy, but i think the notes are ok.
Enjoy playing this great song. Couldnt find a good tab, so i decided i shall tab it out 
for the people who want to learn this song.
Love and peace from the netherlands

Intro X2 (riff 1)

e-------------------------------------------------------------------------|
b-------------------------------------------------------------------------|
g-------------------------------------------------------------------------|
d-------2-------2--------------2------------------------------------------|
a--0--3-----------3-0----0--3--------0-0---0------------------------------|
E----------------------------------3------3-------------------------------|

couplet 3X (riff 2)                              after 3 times (Riff3)

e------------------------------------------------|----------------------------|
b------------------------------------------------|----------------------------|
g--------------------2---------------------------|---------------2------------|
d-------2-------0--3-----------------------2-----|------2---0--3--------------|
a--0--3------------------------2------0--3-------|-0--3---------------2----2--|
E------------------------0--4--------------------|---------------0--4---0-4---|

Refrain

e-----------------------------------------------------------------------------|
b-----------------------------------------------------------------------------|
g---------------------2--------------------------------------2----------------|
d------2--------0---3------------------2----------2-----0--3----------------2-|
a-0--3-----------------------2----0--3-------0--3--------------------2---0-3--|
e-----------------------0--4------------------------------------0--4----------|

Couplet 2

e----------------------------------------------------------------------------|
b----------------------------------------------------------------------------|
g--------------------2------------------------2p0h2p0h2-----------------2----|
d-------2-------0--3-----------------------2-------------------2---0--3------|
a--0--3------------------------2------0--3----------------0--3---------------|
E------------------------0--4------------------------------------------------|

e---------------------------------------------------------------------------|
b---------------------------------------------------------------------------|
g---------------------------------------------------------------------------|
d--------------------------2------------------------------------------------|
a-----------2--------0---3--------------------------------------------------|
E----0---4------------------------------------------------------------------|


Refrain

e-----------------------------------------------------------------------------|
b-----------------------------------------------------------------------------|
g---------------------2--------------------------------------2----------------|
d------2--------0---3------------------2----------2-----0--3----------------2-|
a-0--3-----------------------2----0--3-------0--3--------------------2---0-3--|
e-----------------------0--4------------------------------------0--4----------|

e------------|
b------------|
g--2p0h2p0h2-|
d------------|
a------------|
E------------|


couplet
  4X                                                   only second time
e------------------------------------------------|----------------------------|
b------------------------------------------------|----------------------------|
g--------------------2---------------------------|-(2p0h2p0h2)----------------|
d-------2-------0--3-----------------------2-----|----------------------------|
a--0--3------------------------2------0--3-------|----------------------------|
E------------------------0--4--------------------|----------------------------|


Refrain

e-----------------------------------------------------------------------------|
b-----------------------------------------------------------------------------|
g---------------------2--------------------------------------2----------------|
d------2--------0---3------------------2----------2-----0--3----------------2-|
a-0--3-----------------------2----0--3-------0--3--------------------2---0-3--|
e-----------------------0--4------------------------------------0--4----------|

Couplet

e-----------------------------------------------------------------------------|
b-----------------------------------------------------------------------------|
g--------------------2-------------------------------------------------2------|
d-------2-------0--3-----------------------2----------------2------0--3-------|
a--0--3------------------------2------0--3-------------0--3-------------------|
E------------------------0--4-------------------------------------------------|

e-----------------------------------------------------------------------|
b----8-8-----8-8------8-8----8-8---------8-8----8-8----8-8--8-8---------|
g----7-7-----7-7------7-7----7-7---------7-7----7-7----7-7--7-7---------|
d----6-6-----6-6------6-6----6-6---------6-6----6-6----6-6--6-6---------|
a----7-7-----7-7------7-7----7-7---------7-7----7-7----7-7--7-7---------|
E--0-------0--------0------0-----------0------0------0-----0------------|

Solo
                 Random slides            with bar 5 times
e----------------------------------------|--------------------------|
b----------------------------------------|--------------10~~~~------|
g-2p0h2p0h2-----\-----/----2222---\--/---|--------\/----------------|
d----------------------------------------|--------------------------|
a----------------------------------------|--------------------------|
E----------------------------------------|--------------------------|

e----------------------------------------------------------------------------|
b----------------------------------------------------------------------------|
g--9--10----9------------9-10----9--------------9-10----9--------------------|
d--------12---10-9-10---------12---10-9-10-----------12---10-9----9----------|
a--------------------------------------------------------------12--10-12--10-|
E-----------------------------------------------------------------------13---|

e----------------------------------------------------------------------------|
b------------------------15-(B up) (17)~~------------------------------------|
g----------------------------------------------------------------------------|
d----------------------------------------------------------------------------|
a----------------------------------------------------------------------------|
E---12-13-10-12--------------------------------------------------------------|

4X

e-------------------------------------------------------------------------|
b-------------------------------------------------------------------------|
g-------------------------------------------------------------------------|
d-------2-------2--------------2------------------------------------------|
a--0--3-----------3-0----0--3--------0-0---0------------------------------|
E----------------------------------3------3-------------------------------|


e-12--11--9---7--5--4--2--0-----------------------------------------|
b-13--12--10--8--6--5--3--1--3-1--3-5-6-8-10-8-6-5-3---3------------|
g-12--11--9---7--5--4--2--0--2-2--2-4-5-7-9--7-5-4-2-5-2------------|
d----------------------------2-2--0-2-3-5-7--5-3-2-0-5-2------------|
a----------------------------------------------------3--------------|
E-------------------------------------------------------------------|

     repeat 10 times
e-----------------------------------------------------------------------------|
b---------1-3----------3-1----------------------------------------------------|
g---------2-2----------2-2----------------------------------------------------|
d---------2-2----------2-2----------------------------------------------------|
a--0--0--0-----0-0--0--0------------------------------------------------------|
E-----------------------------------------------------------------------------|
comments
print report bad tab
I want to post or [tab]
guest
You may want to rate the tab now too:
select rating
Please do not post tabs as comments. Select "correction" instead!