Oops, an error
Loading. Please wait.

Abracadabra Tab

version 2
version 2

Whole song

Interactive

11,813 views 69 this week
no commentswrite comment
1 2 3 4 5
x 9
add to favorites
launch autoscroll
font size
0
reset
how to read this tab
guitar tuner
Autoscroll
slow
fast
+/-
esc
set tempo
stop
Help us to improve Ultimate-Guitar.com Take our survey!
×
Author
Difficulty
This is my first tab so their might be a few mistakes. I think it sounds good overall. I 
writed it down a bit sloppy, but i think the notes are ok.
Enjoy playing this great song. Couldnt find a good tab, so i decided i shall tab it out 
for the people who want to learn this song.
Love and peace from the netherlands

[Intro] x2 (riff 1)
e|-------------------------------------------------------------------------|
B|-------------------------------------------------------------------------|
G|-------------------------------------------------------------------------|
D|-------2-------2--------------2------------------------------------------|
A|--0--3-----------3-0----0--3--------0-0---0------------------------------|
E|----------------------------------3------3-------------------------------|

[couplet 1] x3 (riff 2)                              after 3 times (Riff3)
e|------------------------------------------------|----------------------------|
B|------------------------------------------------|----------------------------|
G|--------------------2---------------------------|---------------2------------|
D|-------2-------0--3-----------------------2-----|------2---0--3--------------|
A|--0--3------------------------2------0--3-------|-0--3---------------2----2--|
E|------------------------0--4--------------------|---------------0--4---0-4---|

Refrain
e|-----------------------------------------------------------------------------|
B|-----------------------------------------------------------------------------|
G|---------------------2--------------------------------------2----------------|
D|------2--------0---3------------------2----------2-----0--3----------------2-|
A|-0--3-----------------------2----0--3-------0--3--------------------2---0-3--|
E|e-----------------------0--4------------------------------------0--4----------|

[Couplet 2]
e|----------------------------------------------------------------------------|
B|----------------------------------------------------------------------------|
G|--------------------2------------------------2p0h2p0h2-----------------2----|
D|-------2-------0--3-----------------------2-------------------2---0--3------|
A|--0--3------------------------2------0--3----------------0--3---------------|
E|------------------------0--4------------------------------------------------|

e|---------------------------------------------------------------------------|
B|---------------------------------------------------------------------------|
G|---------------------------------------------------------------------------|
D|--------------------------2------------------------------------------------|
A|-----------2--------0---3--------------------------------------------------|
E|----0---4------------------------------------------------------------------|

[Refrain]
e|-----------------------------------------------------------------------------|
B|-----------------------------------------------------------------------------|
G|---------------------2--------------------------------------2----------------|
D|------2--------0---3------------------2----------2-----0--3----------------2-|
A|-0--3-----------------------2----0--3-------0--3--------------------2---0-3--|
E|e-----------------------0--4------------------------------------0--4----------|

e|------------|
B|------------|
G|--2p0h2p0h2-|
D|------------|
A|------------|
E|------------|

[couplet]
   4X                                                   only second time
e|------------------------------------------------|----------------------------|
B|------------------------------------------------|----------------------------|
G|--------------------2---------------------------|-(2p0h2p0h2)----------------|
D|-------2-------0--3-----------------------2-----|----------------------------|
A|--0--3------------------------2------0--3-------|----------------------------|
E|------------------------0--4--------------------|----------------------------|

[Refrain]
e|-----------------------------------------------------------------------------|
B|-----------------------------------------------------------------------------|
G|---------------------2--------------------------------------2----------------|
D|------2--------0---3------------------2----------2-----0--3----------------2-|
A|-0--3-----------------------2----0--3-------0--3--------------------2---0-3--|
E|e-----------------------0--4------------------------------------0--4----------|

[Couplet]
e|-----------------------------------------------------------------------------|
B|-----------------------------------------------------------------------------|
G|--------------------2-------------------------------------------------2------|
D|-------2-------0--3-----------------------2----------------2------0--3-------|
A|--0--3------------------------2------0--3-------------0--3-------------------|
E|------------------------0--4-------------------------------------------------|

e|-----------------------------------------------------------------------|
B|----8-8-----8-8------8-8----8-8---------8-8----8-8----8-8--8-8---------|
G|----7-7-----7-7------7-7----7-7---------7-7----7-7----7-7--7-7---------|
D|----6-6-----6-6------6-6----6-6---------6-6----6-6----6-6--6-6---------|
A|----7-7-----7-7------7-7----7-7---------7-7----7-7----7-7--7-7---------|
E|--0-------0--------0------0-----------0------0------0-----0------------|

[Solo]
                  Random slides            with bar 5 times
e|----------------------------------------|--------------------------|
B|----------------------------------------|--------------10~~~~------|
G|-2p0h2p0h2-----\-----/----2222---\--/---|--------\/----------------|
D|----------------------------------------|--------------------------|
A|----------------------------------------|--------------------------|
E|----------------------------------------|--------------------------|

e|----------------------------------------------------------------------------|
B|----------------------------------------------------------------------------|
G|--9--10----9------------9-10----9--------------9-10----9--------------------|
D|--------12---10-9-10---------12---10-9-10-----------12---10-9----9----------|
A|--------------------------------------------------------------12--10-12--10-|
E|-----------------------------------------------------------------------13---|

e|----------------------------------------------------------------------------|
B|------------------------15-(B up) (17)~~------------------------------------|
G|----------------------------------------------------------------------------|
D|----------------------------------------------------------------------------|
A|----------------------------------------------------------------------------|
E|---12-13-10-12--------------------------------------------------------------|

4X

e|-------------------------------------------------------------------------|
B|-------------------------------------------------------------------------|
G|-------------------------------------------------------------------------|
D|-------2-------2--------------2------------------------------------------|
A|--0--3-----------3-0----0--3--------0-0---0------------------------------|
E|----------------------------------3------3-------------------------------|


e|-12--11--9---7--5--4--2--0-----------------------------------------|
B|-13--12--10--8--6--5--3--1--3-1--3-5-6-8-10-8-6-5-3---3------------|
G|-12--11--9---7--5--4--2--0--2-2--2-4-5-7-9--7-5-4-2-5-2------------|
D|----------------------------2-2--0-2-3-5-7--5-3-2-0-5-2------------|
A|----------------------------------------------------3--------------|
E|-------------------------------------------------------------------|

      repeat 10 times
e|-----------------------------------------------------------------------------|
B|---------1-3----------3-1----------------------------------------------------|
G|---------2-2----------2-2----------------------------------------------------|
D|---------2-2----------2-2----------------------------------------------------|
A|--0--0--0-----0-0--0--0------------------------------------------------------|
E|-----------------------------------------------------------------------------|

************************************

| h  Hammer-on
| p  Pull-off
| ~  Vibrato
| /  Slide up
| \  Slide down

************************************
Suggest correction
comments
print report bad tab
guest
You may want to rate the tab now too:
select rating
Wanna post a correction for this tab? Suggest correction